» » »

Darkness - Get Your Hands Off Of My Woman Tabs

Artists:  A B C D E F G H I J K L M N O P Q R S T U V W X Y Z # 

Get Your Hands Off Of My Woman Tabs

(ver. 2) Click to play this song!
Darkness
 Rating:
4/5 (16 votes)


 Get Your Hands Off Of My Woman lessons Tabs too difficult? Try these video lessons and learn fast
 
                

I love this song and The Darkness rule.  i think is about 99% right, 
as the solo is a bit off.  Please rate it.

its in drop D tuning.  you can play it in normal tuning using all power chords,
but the darkness use drop d so thats how im doing it.



b = bend
h = hammer on
p = pull off
x = damp note



Intro (bass Plays Main)

e|-----------------------------------------------------|
b|-----------------------------------------------------|
g|--7---Let--------------------------7---Let-----------|
d|--7----It--------------------------7----It-----------|
a|--5---Ring-------------------------5---Ring----------|
D|-----------------------------------------------------|



Wooooaaaaaaaaaahhhhhhhhh

Main Riff

e|-----------------------------------------------------------------|
b|-----------------------------------------------------------------|
g|-7-7---3-3---------5-5---3-2---7-7---3-3---------5-5-----5-5-6---|
d|-7-7---3-3---3-3---5-5---3-2---7-7---3-3---3-3---5-5-----5-5-6---|
a|-5-5---1-1---3-3---3-3---1-0---5-5---1-1---3-3---3-3-----0-3-4---|
D|-------------3-3---------------------------3-3-------------------|



verse (1)  i cant realy tab the timing between notes.  listen to the song.


e|-------------------------------------------------|
b|-------------------------------------------------|
g|-7b--7b--7b--7b--7b--7b--7b--7b--7b--7b----------|
d|-----------------------------------------0-3-5---|
a|-----------------------------------------0-3-5---|
D|-----------------------------------------0-3-5---|



Verse (2)


e|-------------------------------------------------------------|
b|-------------------------------------------------------------|
g|-------------------------------------------------------------|
d|-3-5-5-3-5----3-5-5-3-5----5-5-5-5-5-5-5-5-5-5-5-5-5-5-5-5---|
a|-3-5-5-3-5----3-5-5-3-5----5-5-5-5-5-5-5-5-5-5-5-5-5-5-5-5---|
D|-3-5-5-3-5----3-5-5-3-5----5-5-5-5-5-5-5-5-5-5-5-5-5-5-5-5---|



bridge


e|----------------------------|
b|----------------------------|
g|----------------------------|
d|-2--3--4--5-6-7-8-9-10-11---|
a|-2--3--4--5-6-7-8-9-10-11---|
D|-2--3--4--5-6-7-8-9-10-11---|



verse (3)


e|--------------------------------------------------------------|
b|--------------------------------------------------------------|
g|-7-x-x-7-x-x-7-x-x-7-x-x-7-x-7-x-7-x-x-7-x-x-7-x-x-7----------|
d|-7-x-x-7-x-x-7-x-x-7-x-x-7-x-7-x-7-x-x-7-x-x-7-x-x-7--0-3-5---|
a|-5-x-x-5-x-x-5-x-x-5-x-x-5-x-5-x-5-x-x-5-x-x-5-x-x-5--0-3-5---|
D|------------------------------------------------------0-3-5---|



solo 
 
	This isn't anywhere near perfect, but its a start for other people.
try it with a short delay, and if you improve it please tell me in my corrections.
Thanks.



e|---------------------------------------------------------------------------|
b|---------------------------------------------------------------------------|
g|-----7h9p7h9-----7h9p7h9-----7h9p7h9-----7h9p7h9-----7h9p7h9-----7h9p7h9---|
d|-7-7---------7-7---------7-7---------7-7---------7-7---------7-7-----------|
a|---------------------------------------------------------------------------|
D|---------------------------------------------------------------------------|


e|----------------------------------------------------------------------------|
b|----------------------------------------------------------------------------|
g|-----7h9p7h9-----7h9p7h9----10-9--10-9-7------------------------------------|
d|-7-7---------7-7---------7b--------------9---12-13-14-15-16-17-18-19-20-21--|
a|----------------------------------------------------------------------------|
D|----------------------------------------------------------------------------|



order:

intro 
main riff x 2
verse (1) x 2
Verse (2) x 1 
bridge x 1
main riff x 2
verse (1) x 1
verse (3) x 2
Verse (2) x 1
bridge (1) x 1
Main riff x 2
intro (bass plays main riff)
solo
Main x 4 (on last time stop in middle and scream MOTHER F***ER)


and there you go. please send comments in the corrections page.
            
Submit corrections



        Get Your Hands Off Of My Woman lessons Hard to play? Try these video lessons and learn fast Get Your Hands Off Of My Woman lessons
        
↑ Back to top | Tablatures and chords for acoustic guitar and electric guitar, ukulele, drums are parodies/interpretations of the original songs. You may use it for private study, scholarship, research or language learning purposes only