» » »

Darius - Mercury Rising Tabs

Artists:  A B C D E F G H I J K L M N O P Q R S T U V W X Y Z # 

Mercury Rising Tabs

(ver. 1) Click to play this song!
Darius
 Rating:
4/5 (4 votes)
                Darius – Mercury Rising

1----------------2-------------------------------------------4----------------------------
2-----------3---------3----------3--------------------3------------3-------------3-----
3------2--------------------2-------------------2--------------------------2-------------
4---0-------------------------------------0-----------------------------------------------
5-------------------------------------------------------------------------------------------
6-------------------------------------------------------------------------------------------

1--------------0-----------------------------------------4--------------------------------
2----------3-------3--------3-------------------3--------------3-------------3---------
3------2----------------2-----------------2----------------------------2-----------------
4---0--------------------------------0----------------------------------------------------
5-------------------------------------------------------------------------------------------
6-------------------------------------------------------------------------------------------

1--------------0-----------------------------------------4--------------------------------
2----------3-------3--------3-------------------3--------------3-------------3---------
3------2----------------2-----------------2----------------------------2-----------------
4---0--------------------------------0----------------------------------------------------
5-------------------------------------------------------------------------------------------
6-------------------------------------------------------------------------------------------

1----------------2-------------------------------------------4----------------------------
2-----------3---------3----------3--------------------3------------3-------------3-----
3------2--------------------2-------------------2--------------------------2-------------
4---0-------------------------------------0-----------------------------------------------
5-------------------------------------------------------------------------------------------
6-------------------------------------------------------------------------------------------

This is repeated throughout the song.
            
Submit corrections

↑ Back to top | Tablatures and chords for acoustic guitar and electric guitar, ukulele, drums are parodies/interpretations of the original songs. You may use it for private study, scholarship, research or language learning purposes only