» » »

Danny Michel - Beautiful Chords

Artists:  A B C D E F G H I J K L M N O P Q R S T U V W X Y Z # 

Beautiful Chords

(ver. 1) Click to play this song!
Danny Michel
 Rating:
4.4/5 (5 votes)

 Beautiful lessons Tabs too difficult? Try these video lessons and learn fast
 
                [Intro]
   A  A6    A A6 A D     A        A6  G       G/F#
e|----------------------------------------------------|
B|-----------2-----------2--2-2--2-2------------------|
G|-2--2--2-2-2-2-2---2---2--2-2--2-2------------------|
D|-2--4--4-4-2-4-2---2---2--2-2--2-4------------------|
A|-0--0--0-0---0-0-5-0-5--------------5--5-5--5--5-5--|
D|------------------------------------5--5-5--4--4-4--|

   A  A6    A A6 A D     A        A6  G       G/F#
e|----------------------------------------------------|
B|-----------2-----------2--2-2--2-2------------------|
G|-2--2--2-2-2-2-2---2---2--2-2--2-2------------------|
D|-2--4--4-4-2-4-2---2---2--2-2--2-4------------------|
A|-0--0--0-0---0-0-5-0-5--------------5--5-5--5--5-5--|
D|------------------------------------5--5-5--4--4-4--|

[Verse 1]
 A  A6       A A6  A     D     A      A6  G     G/F#
Sitting in a rainy tent in an 'I love NY' hat.
 A  A6         A A6  A   D     A      A6      G     G/F#
She said I was beautiful and I'd never heard that.
     Em           G
From someone like you.
     Em             G
C'mon, this can't be true.
    Em               A
You make me feel all new and...

[Chorus]
D       D5 D Dsus2 D    G   G/F#
Beau         -          tiful
D       D5 D Dsus2 D    G   G/F#
Beau         -          tiful

[Verse 2]
 A  A6             A A6  A     D     A      A6        G     G/F#
She held me on the telephone, but it's just not the same.
 A  A6       A A6  A     D     A      A6     G     G/F#
So we go double-dutch, and she climbed in a plane.
 A  A6           A A6  A      D        A      A6          G     G/F#
Now I'm sleeping in till noon, and the little things don't hurt.
 A  A6          A   A6  A     D     A      A6       G     G/F#
Now I'm wearing out her name, and she's wearing my shirts.
  Em              G
I wanna shoot the moon,
     Em             G
spend all my cash on you
   Em            A
Do everything to you... 'Cause you're

[Chorus]
D       D5 D Dsus2 D    G   G/F#
Beau         -          tiful
D       D5 D Dsus2 D    G   G/F#
Beau         -          tiful
D       D5 D Dsus2 D    G   G/F#
Beau         -          tiful
D       D5 D Dsus2 D    G   G/F#
Beau         -          tiful

[Bridge]
D                G
You'll be #1 and I'll be #2,
D                                G
You're a modern girl and I'm an old fashioned fool.

[Solo]
e|------------------------|-----------------------|------------------------|
B|------------------------|-----------------------|------------------------|
G|------------------------|-----------------------|------------------------|
D|--0----0----0---bd4--0--|--0----0----0---bd4--0-|--0----0----0---bd4--0--|
A|-5-0--4-0--2-0----------|-5-0--4-0--2-0---------|-5-0--4-0--2-0----------|
D|------------------------|-----------------------|------------------------|

e|----------------bd14--12----------|
B|-------------------------------|
G|-------------------------------|
D|--0----0----0------------------|
A|-5-0--4-0--2-0--------------------|
D|----------------------------------|

   A  A6    A A6 A D     A        A6  G       G/F#
e|----------------------------------------------------|
B|-----------2-----------2--2-2--2-2------------------|
G|-2--2--2-2-2-2-2---2---2--2-2--2-2------------------|
D|-2--4--4-4-2-4-2---2---2--2-2--2-4------------------|
A|-0--0--0-0---0-0-5-0-5--------------5--5-5--5--5-5--|
D|------------------------------------5--5-5--4--4-4--|

   A  A6    A A6 A D     A        A6  G       G/F#
e|----------------------------------------------------|
B|-----------2-----------2--2-2--2-2------------------|
G|-2--2--2-2-2-2-2---2---2--2-2--2-2------------------|
D|-2--4--4-4-2-4-2---2---2--2-2--2-4------------------|
A|-0--0--0-0---0-0-5-0-5--------------5--5-5--5--5-5--|
D|------------------------------------5--5-5--4--4-4--|

[Verse 3]
 A  A6              A   A6  A     D     A      A6       G     G/F#
She sparkles in the pouring rain, and keeps me water tight.
 A  A6            A   A6  A     D        A      A6       G     G/F#
I don't know what all this means, but man it sure feels right.
  Em                G
I haven't felt this good,
  Em              G
I didn't know you could.
  Em                    A
I never thought I should be...

[Chorus]
D       D5 D Dsus2 D    G   G/F#
Beau         -          tiful
D       D5 D Dsus2 D    G   G/F#
Beau         -          tiful
D       D5 D Dsus2 D    G   G/F#
Beau         -          tiful
D       D5 D Dsus2 D    G   G/F#
Beau         -          tiful            
Submit corrections


        Beautiful lessons Hard to play? Try these video lessons and learn fast Beautiful lessons
        
↑ Back to top | Tablatures and chords for acoustic guitar and electric guitar, ukulele, drums are parodies/interpretations of the original songs. You may use it for private study, scholarship, research or language learning purposes only