Home » D » Danny Elfman »

Danny Elfman - Sally's Song Tabs

Artists:  A B C D E F G H I J K L M N O P Q R S T U V W X Y Z # 

Sally's Song Tabs

(ver. 2) Click to play this song!
Danny Elfman
Sally's Song
Nightmare Before Christmas

e)--------------------------------------------------------|
a)--------------------------------------------------------|
g)--------------------------------------------------------|   Verse
d)----------------------------------5---------------------|
a)-----5-7-------5-7-8-8-5-----5-7-8--5-7-5-5-7-8-8-5-----|
e)-5-8----5-8-5-6---------7-4-5------8---------------7-4-5|


e)------------------------------------|
a)------------------------------------|
g)------------------------------------|  Chorus/Outro
d)------------------------------------|
a)-5-7-8-8-7---5-5--8-5---------------|
e)----------7-8---8----6-5-5-4-5-7-8-5|


(This is my first tab so sorry for any mistakes)
Thanks, Jessicaxoxo
            
Submit corrections

↑ Back to top | Tablatures and chords for acoustic guitar and electric guitar, ukulele, drums are parodies/interpretations of the original songs. You may use it for private study, scholarship, research or language learning purposes only