» » »

Danko Jones - Wild Woman Tabs

Artists:  A B C D E F G H I J K L M N O P Q R S T U V W X Y Z # 

Wild Woman Tabs

(ver. 1) Click to play this song!
Danko Jones
 Rating:
4/5 (4 votes)

 Wild Woman  lessons Tabs too difficult? Try these video lessons and learn fast
 
                Tuning: Standard

intro

e|-------------------|------------------|------------------|------------------| 
B|-------------------|------------------|------------------|------------------| 
G|-------------------|------------------|------------------|------------------| 
D|-8/10-101010101010-|-1010101010101010-|-1010101010101010-|-1010101010101010-| 
A|-8/10-101010101010-|-1010101010101010-|-1010101010101010-|-1010101010101010-| 
E|-6/8--8-8-8-8-8-8--|-8-8-8-8-8-8-8-8--|-8-8-8-8-8-8-8-8--|-8-8-8-8-8-8-8-8--| 

e|------------------|------------------|------------------|------------------| 
B|------------------|------------------|------------------|------------------|
G|------------------|------------------|------------------|------------------|
D|-1010101010101010-|-1010101010101010-|-1010101010101010-|-10101010-10\(4)--|
A|-1010101010101010-|-1010101010101010-|-1010101010101010-|-10101010-10\(4)--|
E|-8-8-8-8-8-8-8-8--|-8-8-8-8-8-8-8-8--|-8-8-8-8-8-8-8-8--|-8-8-8-8--8-\(2)--|


verse 
        (wild woman...)
e|-------------------|------------------|------------------|------------------:| 
B|-------------------|------------------|------------------|------------------:| 
G|-------------------|------------------|------------------|------------------:|  2x
D|-8/10-101010101010-|-1010101010101010-|-1010101010101010-|-1010101010101010-:| 
A|-8/10-101010101010-|-1010101010101010-|-1010101010101010-|-1010101010101010-:| 
E|-6/8--8-8-8-8-8-8--|-8-8-8-8-8-8-8-8--|-8-8-8-8-8-8-8-8--|-8-8-8-8-8-8-8-8--:|


e|--------------------|-------------------|-------------------|-------------------:|
B|--------------------|-------------------|-------------------|-------------------:| 
G|---------------10-8-|--------------10-8-|--------------10-8-|--------------10-8-:| 2x
D|-8/10-10101010-10-8-|-101010101010-8--6-|-101010101010-8--6-|-101010101010-8--6-:|
A|-8/10-10101010-8--6-|-101010101010-8--6-|-101010101010-8--6-|-101010101010-8--6-:| 
E|-6/8--8-8-8-8-------|-8-8-8-8-8-8-------|-8-8-8-8-8-8-------|-8-8-8-8-8-8-------:| 


chorus
        (you don't listen to love...)
e|------------|------------|-------------------|------------------|
B|------------|------------|-------------------|------------------|
G|------------|------------|-------------------|------------------|
D|-8\6-666666-|-6\3-333333-|-8/10-101010101010-|-1010101010101010-|
A|-8\6-666666-|-6\3-333333-|-8/10-101010101010-|-1010101010101010-|
E|-6\4-444444-|-4\1-111111-|-6/8--8-8-8-8-8-8--|-8-8-8-8-8-8-8-8--|

e|------------|------------|-------------------|------------------|
B|------------|------------|-------------------|------------------|
G|------------|------------|-------------------|------------------|
D|-8\6-666666-|-6\3-333333-|-8/10-101010101010-|-10101010-10------|
A|-8\6-666666-|-6\3-333333-|-8/10-101010101010-|-10101010-10------|
E|-6\4-444444-|-4\1-111111-|-6/8--8-8-8-8-8-8--|-8-8-8-8--8-------|


verse 

e|-------------------|-------------------|-------------------|-------------------:| 
B|-------------------|-------------------|-------------------|-------------------:| 
G|-------------------|-------------------|-------------------|-------------------:|  2x
D|-8/10-101010101010-|-8/10-101010101010-|-8/10-101010101010-|-8/10-101010101010-:| 
A|-8/10-101010101010-|-8/10-101010101010-|-8/10-101010101010-|-8/10-101010101010-:|
E|-6/8--8-8-8-8-8-8--|-6/8--8-8-8-8-8-8--|-6/8--8-8-8-8-8-8--|-6/8--8-8-8-8-8-8--:|


chorus

e|------------|------------|-------------------|------------------:|
B|------------|------------|-------------------|------------------:|
G|------------|------------|-------------------|------------------:| 2x
D|-8\6-666666-|-6\3-333333-|-8/10-101010101010-|-1010101010101010-:|
A|-8\6-666666-|-6\3-333333-|-8/10-101010101010-|-1010101010101010-:|
E|-6\4-444444-|-4\1-111111-|-6/8--8-8-8-8-8-8--|-8-8-8-8-8-8-8-8--:|




bridge

e|------------|------------|----------|
B|------------|------------|----------|
G|------------|------------|----------|
D|-8\6-666666-|-6\3-333333-|-33333333-|
A|-8\6-666666-|-6\3-333333-|-33333333-|
E|-6\4-444444-|-4\1-111111-|-11111111-|


solo (rythm)

e|-------------------|------------------|------------------|------------------| 
B|-------------------|------------------|------------------|------------------| 
G|-------------------|------------------|------------------|------------------| 
D|-8/10-101010101010-|-1010101010101010-|-1010101010101010-|-1010101010101010-| 
A|-8/10-101010101010-|-1010101010101010-|-1010101010101010-|-1010101010101010-| 
E|-6/8--8-8-8-8-8-8--|-8-8-8-8-8-8-8-8--|-8-8-8-8-8-8-8-8--|-8-8-8-8-8-8-8-8--|

e|------------|------------|-------------------|------------------|
B|------------|------------|-------------------|------------------|
G|------------|------------|-------------------|------------------|
D|-8\6-666666-|-6\3-333333-|-8/10-101010101010-|-1010101010101010-|
A|-8\6-666666-|-6\3-333333-|-8/10-101010101010-|-1010101010101010-|
E|-6\4-444444-|-4\1-111111-|-6/8--8-8-8-8-8-8--|-8-8-8-8-8-8-8-8--|

e|------------|------------|-------------------|------------------|
B|------------|------------|-------------------|------------------|
G|------------|------------|-------------------|------------------|
D|-8\6-666666-|-6\3-333333-|-8/10-101010101010-|-1010101010101010-|
A|-8\6-666666-|-6\3-333333-|-8/10-101010101010-|-1010101010101010-|
E|-6\4-444444-|-4\1-111111-|-6/8--8-8-8-8-8-8--|-8-8-8-8-8-8-8-8--|

solo (lead)

e|-----------------|--------------|------------------|--------------|
B|-------------4-6-|-----4-6------|--------------4-6-|-----4-6------|
G|---------3-5-----|-3-5-----5~---|----------3-5-----|-3-5-----5~---|
D|-----3-5---------|--------------|-----3-5----------|--------------|
A|-3-6-------------|--------------|-3-6--------------|--------------|
E|-----------------|--------------|------------------|--------------|

e|-----------------|--------------|------------------|--------------|
B|-----------------|--------------|---4---4---4---4--|---------13~--|
G|--------5~-------|-3~-----5~----|-5---5---5---5----|-5/12---------|
D|-----------------|--------------|------------------|------10------|
A|--3-6-3--------3-|--------------|------------------|--------------|
E|-----------------|--------------|------------------|--------------|

e|-----------------|--------------|------------------|--------------|
B|-----------------|--------------|---4---4---4---4--|---------13~--|
G|--------5~-------|-3~-----5~----|-5---5---5---5----|-5/12---------|
D|-----------------|--------------|------------------|------10------|
A|--3-6-3--------3-|--------------|------------------|--------------|
E|-----------------|--------------|------------------|--------------|



verse (drum fills)

e|-----------|-------------|------------|-------------|
B|-----------|-------------|------------|-------------|
G|-----------|-------------|------------|-------------|
D|-10--------|-------------|-10---------|-------------|
A|-10     (let ring)      -|-10  (let ring)          -|
E|-8---------|-------------|-8----------|-------------|

chorus

e|------------|------------|-------------------|-------------------:|
B|------------|------------|-------------------|-------------------:|
G|------------|------------|--------------10-8-|--------------10-8-:| 3x
D|-8\6-666666-|-6\3-333333-|-101010101010-10-8-|-101010101010-10-8-:|
A|-8\6-666666-|-6\3-333333-|-101010101010-8--6-|-101010101010-8--6-:|
E|-6\4-444444-|-4\1-111111-|-8-8-8-8-8-8-------|-8-8-8-8-8-8-------:|


outro

e|------------|------------|
B|------------|------------|
G|------------|------------|
D|-8\6-666666-|-3----------|
A|-8\6-666666-|-3----------|
E|-6\4-444444-|-1----------|            
Submit corrections


        Wild Woman  lessons Hard to play? Try these video lessons and learn fast Wild Woman  lessons
        
↑ Back to top | Tablatures and chords for acoustic guitar and electric guitar, ukulele, drums are parodies/interpretations of the original songs. You may use it for private study, scholarship, research or language learning purposes only