Home » D » Daniel Lanois »

Daniel Lanois - Jolie Louise Tabs

Artists:  A B C D E F G H I J K L M N O P Q R S T U V W X Y Z # 

Jolie Louise Tabs
Version #1
Daniel Lanois


Copy URL
[Intro]
      C                                   G                 C
e ||------------------|-----------------|-----------------|------------------||
B ||--1---------1-----|-1---------1-----|-0---------0-----|-1---------1------||
G ||--------0-------0-|-------0-------0-|-------0-------0-|-------0-------0--||
D ||------2-------2---|-----2-------2---|-----0-------0---|-----2-------2----||
A ||--3---------------|-3---------------|-----------------|-3----------------||
E ||----------3-------|---------3-------|-3-------3-------|---------3--------||
  ||  1 + 2 + 3 + 4 + | 1 + 2 + 3 + 4 + | 1 + 2 + 3 + 4 + | 1 + 2 + 3 + 4 +  ||
 
[Verse 1]
      C                                   G                 C
e ||------------------|-----------------|-----------------|------------------||
B ||--1---------1-----|-1---------1-----|-0---------0-----|-1---------1------||
G ||o-------0-------0-|-------0-------0-|-------0-------0-|-------0-------0-o||
D ||o-----2-------2---|-----2-------2---|-----0-------0---|-----2-------2---o||
A ||--3---------------|-3---------------|-----------------|-3----------------||
E ||----------3-------|---------3-------|-3-------3-------|---------3--------||
  ||  1 + 2 + 3 + 4 + | 1 + 2 + 3 + 4 + | 1 + 2 + 3 + 4 + | 1 + 2 + 3 + 4 +  ||
 
      G                                   C                 C
e ||------------------|-----------------|-----------------|-------------------|
B ||--0---------0-----|-0---------0-----|-1---------1-----|-1---------1-------|
G ||--------0-------0-|-------0-------0-|-------0-------0-|-------0-------0---|
D ||------0-------0---|-----0-------0---|-----2-------2---|-----2-------2-----|
A ||------------------|-----------------|-3---------------|-3-----------------|
E ||--3-------3-------|-3-------3-------|---------3-------|---------3---------|
  ||  1 + 2 + 3 + 4 + | 1 + 2 + 3 + 4 + | 1 + 2 + 3 + 4 + | 1 + 2 + 3 + 4 +   |
 
      G                                   Am                F
e |-------------------|-----------------|-----------------|-------------------|
B |---0---------0-----|-0---------0-----|-1---------1-----|-1---------1-------|
G |---------0-------0-|-------0-------0-|-------2-------2-|-------2-------2---|
D |-------0-------0---|-----0-------0---|-----2-------2---|-----3-------3-----|
A |-------------------|-----------------|-0---------------|---------3---------|
E |---3-------3-------|-3-------3-------|---------0-------|-1-----------------|
  |   1 + 2 + 3 + 4 + | 1 + 2 + 3 + 4 + | 1 + 2 + 3 + 4 + | 1 + 2 + 3 + 4 +   |
 
      C
e |-------------------|-----------------|-----------------||
B |---1---------1-----|-1---------1-----|-1---------1-----||
G |---------0-------0-|-------0-------0-|-------0-------0-||
D |-------2-------2---|-----2-------2---|-----2-------2---||
A |---3---------------|-3---------------|-3---------------||
E |-----------3-------|---------3-------|---------3-------||
  |   1 + 2 + 3 + 4 + | 1 + 2 + 3 + 4 + | 1 + 2 + 3 + 4 + ||
 
[Verse 2]
      C                                   G                 C
e ||------------------|-----------------|-----------------|-------------------|
B ||--1---------------|-1---------1-----|-0---------0-----|-1---------1-------|
G ||--0---------------|-------0-------0-|-------0-------0-|-------0-------0---|
D ||------------------|-----2-------2---|-----0-------0---|-----2-------2-----|
A ||--3---------------|-3---------------|-----------------|-3-----------------|
E ||------------------|---------3-------|-3-------3-------|---------3---------|
  ||  1 + 2 + 3 + 4 + | 1 + 2 + 3 + 4 + | 1 + 2 + 3 + 4 + | 1 + 2 + 3 + 4 +   |
 
      C                                   G                 C
e |-------------------|-----------------|-----------------|-------------------|
B |---1---------1-----|-1---------1-----|-0---------0-----|-1---------1-------|
G |---------0-------0-|-------0-------0-|-------0-------0-|-------0-------0---|
D |-------2-------2---|-----2-------2---|-----0-------0---|-----2-------2-----|
A |---3---------------|-3---------------|-----------------|-3-----------------|
E |-----------3-------|---------3-------|-3-------3-------|---------3---------|
  |   1 + 2 + 3 + 4 + | 1 + 2 + 3 + 4 + | 1 + 2 + 3 + 4 + | 1 + 2 + 3 + 4 +   |
 
      G                                   C                 C
e |-------------------|-----------------|-----------------|-------------------|
B |---0---------0-----|-0---------0-----|-1---------1-----|-1---------1-------|
G |---------0-------0-|-------0-------0-|-------0-------0-|-------0-------0---|
D |-------0-------0---|-----0-------0---|-----2-------2---|-----2-------2-----|
A |-------------------|-----------------|-3---------------|-3-----------------|
E |---3-------3-------|-3-------3-------|---------3-------|---------3---------|
  |   1 + 2 + 3 + 4 + | 1 + 2 + 3 + 4 + | 1 + 2 + 3 + 4 + | 1 + 2 + 3 + 4 +   |
 
      G                                   Am                F
e |-------------------|-----------------|-----------------|-------------------|
B |---0---------0-----|-0---------0-----|-1---------1-----|-1---------1-------|
G |---------0-------0-|-------0-------0-|-------2-------2-|-------2-------2---|
D |-------0-------0---|-----0-------0---|-----2-------2---|-----3-------3-----|
A |-------------------|-----------------|-0---------------|---------3---------|
E |---3-------3-------|-3-------3-------|---------0-------|-1-----------------|
  |   1 + 2 + 3 + 4 + | 1 + 2 + 3 + 4 + | 1 + 2 + 3 + 4 + | 1 + 2 + 3 + 4 +   |
 
      C
e |-------------------|-----------------|-----------------||
B |---1---------1-----|-1---------1-----|-1---------1-----||
G |---------0-------0-|-------0-------0-|-------0-------0-||
D |-------2-------2---|-----2-------2---|-----2-------2---||
A |---3---------------|-3---------------|-3---------------||
E |-----------3-------|---------3-------|---------3-------||
  |   1 + 2 + 3 + 4 + | 1 + 2 + 3 + 4 + | 1 + 2 + 3 + 4 + ||
 
[Verse 3]
      C                                   G                 C
e ||------------------|-----------------|-----------------|-------------------|
B ||--1---------------|-1---------1-----|-0---------0-----|-1---------1-------|
G ||--0---------------|-------0-------0-|-------0-------0-|-------0-------0---|
D ||------------------|-----2-------2---|-----0-------0---|-----2-------2-----|
A ||--3---------------|-3---------------|-----------------|-3-----------------|
E ||------------------|---------3-------|-3-------3-------|---------3---------|
  ||  1 + 2 + 3 + 4 + | 1 + 2 + 3 + 4 + | 1 + 2 + 3 + 4 + | 1 + 2 + 3 + 4 +   |
 
      C                                   G                 C
e |-------------------|-----------------|-----------------|-------------------|
B |---1---------1-----|-1---------1-----|-0---------0-----|-1---------1-------|
G |---------0-------0-|-------0-------0-|-------0-------0-|-------0-------0---|
D |-------2-------2---|-----2-------2---|-----0-------0---|-----2-------2-----|
A |---3---------------|-3---------------|-----------------|-3-----------------|
E |-----------3-------|---------3-------|-3-------3-------|---------3---------|
  |   1 + 2 + 3 + 4 + | 1 + 2 + 3 + 4 + | 1 + 2 + 3 + 4 + | 1 + 2 + 3 + 4 +   |
 
      G                                   C                 C
e |-------------------|-----------------|-----------------|-------------------|
B |---0---------0-----|-0---------0-----|-1---------1-----|-1---------1-------|
G |---------0-------0-|-------0-------0-|-------0-------0-|-------0-------0---|
D |-------0-------0---|-----0-------0---|-----2-------2---|-----2-------2-----|
A |-------------------|-----------------|-3---------------|-3-----------------|
E |---3-------3-------|-3-------3-------|---------3-------|---------3---------|
  |   1 + 2 + 3 + 4 + | 1 + 2 + 3 + 4 + | 1 + 2 + 3 + 4 + | 1 + 2 + 3 + 4 +   |
 
      G                                   Am                F
e |-------------------|-----------------|-----------------|-------------------|
B |---0---------0-----|-0---------0-----|-1---------1-----|-1---------1-------|
G |---------0-------0-|-------0-------0-|-------2-------2-|-------2-------2---|
D |-------0-------0---|-----0-------0---|-----2-------2---|-----3-------3-----|
A |-------------------|-----------------|-0---------------|---------3---------|
E |---3-------3-------|-3-------3-------|---------0-------|-1-----------------|
  |   1 + 2 + 3 + 4 + | 1 + 2 + 3 + 4 + | 1 + 2 + 3 + 4 + | 1 + 2 + 3 + 4 +   |
 
      C
e |-------------------|-----------------|-----------------||
B |---1---------1-----|-1---------1-----|-1---------1-----||
G |---------0-------0-|-------0-------0-|-------0-------0-||
D |-------2-------2---|-----2-------2---|-----2-------2---||
A |---3---------------|-3---------------|-3---------------||
E |-----------3-------|---------3-------|---------3-------||
  |   1 + 2 + 3 + 4 + | 1 + 2 + 3 + 4 + | 1 + 2 + 3 + 4 + ||
 
 
  [Verse 4]
      C                                   G                 C
e ||------------------|-----------------|-----------------|-------------------|
B ||--1---------------|-1---------1-----|-0---------0-----|-1---------1-------|
G ||--0---------------|-------0-------0-|-------0-------0-|-------0-------0---|
D ||------------------|-----2-------2---|-----0-------0---|-----2-------2-----|
A ||--3---------------|-3---------------|-----------------|-3-----------------|
E ||------------------|---------3-------|-3-------3-------|---------3---------|
  ||  1 + 2 + 3 + 4 + | 1 + 2 + 3 + 4 + | 1 + 2 + 3 + 4 + | 1 + 2 + 3 + 4 +   |
 
      C                                   G                 C
e |-------------------|-----------------|-----------------|-------------------|
B |---1---------1-----|-1---------1-----|-0---------0-----|-1---------1-------|
G |---------0-------0-|-------0-------0-|-------0-------0-|-------0-------0---|
D |-------2-------2---|-----2-------2---|-----0-------0---|-----2-------2-----|
A |---3---------------|-3---------------|-----------------|-3-----------------|
E |-----------3-------|---------3-------|-3-------3-------|---------3---------|
  |   1 + 2 + 3 + 4 + | 1 + 2 + 3 + 4 + | 1 + 2 + 3 + 4 + | 1 + 2 + 3 + 4 +   |
 
      G                                   C                 C
e |-------------------|-----------------|-----------------|-------------------|
B |---0---------0-----|-0---------0-----|-1---------1-----|-1---------1-------|
G |---------0-------0-|-------0-------0-|-------0-------0-|-------0-------0---|
D |-------0-------0---|-----0-------0---|-----2-------2---|-----2-------2-----|
A |-------------------|-----------------|-3---------------|-3-----------------|
E |---3-------3-------|-3-------3-------|---------3-------|---------3---------|
  |   1 + 2 + 3 + 4 + | 1 + 2 + 3 + 4 + | 1 + 2 + 3 + 4 + | 1 + 2 + 3 + 4 +   |
 
      G                                   Am                F
e |-------------------|-----------------|-----------------|-------------------|
B |---0---------0-----|-0---------0-----|-1---------1-----|-1---------1-------|
G |---------0-------0-|-------0-------0-|-------2-------2-|-------2-------2---|
D |-------0-------0---|-----0-------0---|-----2-------2---|-----3-------3-----|
A |-------------------|-----------------|-0---------------|---------3---------|
E |---3-------3-------|-3-------3-------|---------0-------|-1-----------------|
  |   1 + 2 + 3 + 4 + | 1 + 2 + 3 + 4 + | 1 + 2 + 3 + 4 + | 1 + 2 + 3 + 4 +   |
 
      C
e |-------------------|-----------------|-----------------||
B |---1---------1-----|-1---------1-----|-1---------1-----||
G |---------0-------0-|-------0-------0-|-------0-------0-||
D |-------2-------2---|-----2-------2---|-----2-------2---||
A |---3---------------|-3---------------|-3---------------||
E |-----------3-------|---------3-------|---------3-------||
  |   1 + 2 + 3 + 4 + | 1 + 2 + 3 + 4 + | 1 + 2 + 3 + 4 + ||
 
[Outro]
      C                                   G                 C
e ||------------------|-----------------|-----------------|------------------||
B ||--1---------1-----|-1---------1-----|-0---------0-----|-1----------------||
G ||--------0-------0-|-------0-------0-|-------0-------0-|-0----------------||
D ||------2-------2---|-----2-------2---|-----0-------0---|------------------||
A ||--3---------------|-3---------------|-----------------|-3----------------||
E ||----------3-------|---------3-------|-3-------3-------|------------------||
  ||  1 + 2 + 3 + 4 + | 1 + 2 + 3 + 4 + | 1 + 2 + 3 + 4 + | 1 + 2 + 3 + 4 + -||
            
Submit corrections

↑ Back to top | Tablatures and chords for acoustic guitar and electric guitar, ukulele, drums are parodies/interpretations of the original songs. You may use it for private study, scholarship, research or language learning purposes only