Home » D » Daniela Andrade »

Daniela Andrade - Crazy Tabs

Artists:  A B C D E F G H I J K L M N O P Q R S T U V W X Y Z # 

Crazy Tabs

(ver. 1) Click to play this song!
Daniela Andrade
 Rating:
4/5 (4 votes)
                Tuning:  EADGBE (standard)


e|---------------------------------------------------------------------------|
B|-------7---x----7----7---x----7----7---x---8--7---------------7----x-------|
G|-------7---x----7----7---x----7----7---x---------7------------7----x-------|
D|---------------------------------------------------------------------------|
A|---------------------------------------------------------0-----------------|
E|---7-------x----7--------x----7--------x-------------7-------------x-------|

e|---------------------------------------------------------------------------------------|
B|----7----7----x----7----7----x----7----7----x----7----7----x---------------------------|
G|----6----6----x----6----6----x----6----6----x----6----6----x-----------------4----x----|
D|----7---------x--------------------------------------------------------------4----x----|
A|-------------------0---------x----0---------x----0---------x------0--------------------|
E|-----------------------------------------------------------------------3----------x----|

e|------------------------------------------------------------------------------------------|
B|--------------------------------------------------------------------------------------2---|
G|----4----4----x----4----4----x-----4----4-----x---------------------3---------------------|
D|----4----4----x----4----4----x-----4----4-----x-------------2---------------2-------------|
A|------------------------------------------------------------------------------------------|
E|----3---------x----3---------x-----3----------x----3----2-------2-------2---------2-------|


Repeat.






************************************

| /   slide up
| \   slide down
| h   hammer-on
| p   pull-off
| ~   vibrato
| +   harmonic
| x   Mute note
| b   Bend
| pb  Pre-bend
| br  Bend release
| pbr Pre-bend release
| brb Bend release bend

************************************            
Submit corrections

↑ Back to top | Tablatures and chords for acoustic guitar and electric guitar, ukulele, drums are parodies/interpretations of the original songs. You may use it for private study, scholarship, research or language learning purposes only