» » »

Danger Is My Middle Name - Revenge On The Radio Tabs

Artists:  A B C D E F G H I J K L M N O P Q R S T U V W X Y Z # 

Revenge On The Radio Tabs

(ver. 1) Click to play this song!
Danger Is My Middle Name
 Rating:
4/5 (4 votes)


 Revenge On The Radio lessons Tabs too difficult? Try these video lessons and learn fast
 
                DANGER IS MY MIDDLE NAME - REVENGE ON THE RADIO
key:
/s = pick slide
h = hammer-on
p = pull-off

          one day you'll hear me singin on the radio...
e    |---------------------------------------------------------------|
B    |---------------------------------------------------------------|
G    |--6---------------6--------------------------------------------|
D    |--6---4---8---4---6---4---8---6--------------------------------|
A    |--4---4---8---4---4---4---8---6--------------------------------|
E    |------2---6---2-------2---6---4--------------------------------|


e	|--------------------------------------------------------|
B	|--------------------------------------------------------|
G	|--------------------------------------------------------|
D	|--------------------------------------------------------|
A	|----------5----65---5-----------------------------------|
E	|-666-8-66---66----8-------------------------------------|

         Lights out the jokes on you...
e	|--------------------------------------------------------|
B	|--------------------------------------------------------|
G	|-6-66---------------------------------------------------|
D	|-6-66-4-44-8-88-44444444444-----------------------------|
A	|-4-44-4-44-8-88-44444444444-----------------------------|
E	|------2-22-6-66-22222222222-----------------------------|

         Call it in keep it on the air...
e	|--------------------------------------------------------|
B	|--------------------------------------------------------|
G	|--------------------------------------------------------|
D	|--------------------------------------------------4-/s--|
A	|--44-68-4-68-4-68-44-68-4-68-4-68-44-68-4-68-4-68-4-/s--|
E	|--------------------------------------------------2-/s--|

         One day you'll hear me singin on the radio...
e	|--------------------------------------------------------|
B	|--------------------------------------------------------|
G	|-66666666----------88888888-66666-----------------------|
D	|-66666666-44444444-88888888-66666-66666-----------------|
A	|-44444444-44444444-66666666-44444-66666-----------------|
E	|----------22222222----------------44444-----------------|
         and when you hear me singin whoaaa... kiss mine
e	|--------------------------------------------------------|
B	|--------------------------------------------------------|
G	|-66666666----------88-8---------------------------------|
D	|-66666666-44444444-88-8-1010-10-4-4-4-------------------|
A	|-44444444-44444444-66-6-8-8--8--4-4-4-------------------|
E	|----------22222222--------------2-2-2-------------------|

         REPEAT 3 TIMES THEN PLAY LAST NOTE:
e	|--------------------------------------------------------|
B	|--------------------------------------------------------|
G	|--------------------------------------------------------|
D	|--------------------------------------------------------|
A	|----------5----65---5-----------------------------------|
E	|-666-8-66---66----8-------------------------------------|


         Turn it up sing out loud...(palm mute the single 2's)
e	|--------------------------------------------------------|
B	|--------------------------------------------------------|
G	|--------------------------------------------------------|
D	|--6-4--4--4--4--4-44-88888888-4---------44-444----------|
A	|--6-4--4--4--4--4-44-88888888-4----4444444-444----------|
E	|--4-2222222222222222-66666666-222222222222-222----------|

         One day you'll hear me singin on the radio...
e	|--------------------------------------------------------|
B	|--------------------------------------------------------|
G	|-66666666----------88888888-66666-----------------------|
D	|-66666666-44444444-88888888-66666-66666-----------------|
A	|-44444444-44444444-66666666-44444-66666-----------------|
E	|----------22222222----------------44444-----------------|
         and when you hear me singin whoaaa... kiss mine
e	|--------------------------------------------------------|
B	|--------------------------------------------------------|
G	|-66666666----------88-8---------------------------------|
D	|-66666666-44444444-88-8-1010-10-4-4-4-------------------|
A	|-44444444-44444444-66-6-8-8--8--4-4-4-------------------|
E	|----------22222222--------------2-2-2-------------------|
         whooooo i'm ganna dig your grave.... (palm mute the second and third 4-6 power chord)
e	|-----------------------------------------------------------------|
B	|-----------------------------------------------------------------|
G	|-666666-666------------6------------------------6----------------|
D	|-666666-666-444444-444-666666666666666-44444444-666666666666666--|
A	|-444444-444-444444-444-444444446444644-44444444-444444446444644--|
E	|------------222222-222-----------------22222222------------------|
         ...say, don't try and run away...
e    |-------------------------------------------------------------|
B    |-------------------------------------------------------------|
G    |----------10-------------------------------------------------|
D    |-44444444-101010101010101010---66666666-888-444444444--------|
A    |-44444444-88888888108881088----66666666-888-444444444--------|
E    |-22222222----------------------44444444-666-222222222--------|

         soft: one day you'll hear me singin on the radio(repeat)
e    |-----------------------------------------------------------|
B    |-----------------------------------------------------------|
G    |-6-6-6-6-6-6-----------------------------------------------|
D    |-6-6-6-6-6-6-----------------------------------------------|
A    |--4-4-4-4-4-4----------------------------------------------|
E    |---------------/s------------------------------------------|

         One day you'll hear me singin on the radio...
e	|--------------------------------------------------------|
B	|--------------------------------------------------------|
G	|-66666666----------88888888-66666-----------------------|
D	|-66666666-44444444-88888888-66666-66666-----------------|
A	|-44444444-44444444-66666666-44444-66666-----------------|
E	|----------22222222----------------44444-----------------|
         and when you hear me singin whooaaa, whooaaa on the radio
e    |---------------------------------------------------------|
B    |---------------------------------------------------------|
G    |-66666666------------------------------------------------|
D    |-66666666-44444444---------------------------------------|
A    |-44444444-44444444---------------------------------------|
E    |----------22222222---------------------------------------|

         one day you'll hear me singin on the radiox3
e	|--------------------------------------------------------|
B	|--------------------------------------------------------|
G	|--66666666----------66666666----------66666666----------|
D	|--66666666-44444444-66666666-44444444-66666666-44444444-|
A	|--44444444-44444444-44444444-44444444-44444444-44444444-|
E	|-----------22222222----------22222222----------22222222-|

         Consider this the bitterest goodbye... kiss mine
e	|--------------------------------------------------------|
B	|--------------------------------------------------------|
G	|--88-8--------------------------------------------------|
D	|--88-8-1010-10-4-4-4------------------------------------|
A	|--66-6-8-8--8--4-4-4------------------------------------|
E	|---------------2-2-2------------------------------------|

This Tab took me a lot of work finding out... its almost exact. thank you guys for 
looking at this..... Dakota.
            
Submit corrections



        Revenge On The Radio lessons Hard to play? Try these video lessons and learn fast Revenge On The Radio lessons
        
↑ Back to top | Tablatures and chords for acoustic guitar and electric guitar, ukulele, drums are parodies/interpretations of the original songs. You may use it for private study, scholarship, research or language learning purposes only