Home » D » Dan Fogelberg »

Dan Fogelberg - Leader Of The Band Tabs

Artists:  A B C D E F G H I J K L M N O P Q R S T U V W X Y Z # 

Leader Of The Band Tabs

(ver. 2) Click to play this song!
Dan Fogelberg
[Intro]
e|-------------0-|-----------------|---------------|---0-------------|
B|-3-------3-----|---3---1---0-----|-1-------1-----|-3---3-1---0-----|
G|-----0---------|---------------0-|-----0-------0-|---------------0-|
D|---3-------3---|-----3-------0---|---2-------2---|-------------0---|
A|-2-------------|-2-------0-------|-3-------------|-3---------------|
E|-------3-------|-----------------|-------3-------|---------3-------|

e|-------0-------|-----------------|-2---------------|
B|-0h1------1----|-0-1-0-----------|-----3-----------|
G|-------------0-|-------0---0---0-|---2---0h2p0---0-|
D|-----2--2--2---|-------------2---|-0-----------4---|
A|-0-------------|-----------------|-----------------|
E|---------------|-0-------0-------|-----------------|

e|---------3-----|---------3-----|---------3---|
B|---0h1---------|---0h1---------|---0h1-----1-|
G|-------------0-|-------------0-|-------------| ---INTRO ENDING--->
D|---0h2-----2---|---0h2-----2---|---0h2-----2-|
A|---------------|---------------|-------------|
E|-3-----3-------|-3-----3-------|-3-----3-----|

[Intro 1 Ending]
e|---------------|
B|-0-------0-----|
G|-----0-------0-|
D|---0-------0---|
A|---------------|
E|-3-----3-------|

[Intro 2 Ending]
e|---------|
B|-0~------|
G|-------0-|
D|------x--|
A|------x--|
E|-3~---x--|

[Intro 3 Ending]
e|--------|
B|-----0~-|
G|-----0~-|
D|---0----|
A|--------|
E|-3------|



[Verse]
e|-3-----------------------------|----------------|---------------|
B|---0h1---1-------0-------------|---------3------|---------1-----|
G|-------------0-------0---0---0-|-----4--------4-|-----0-------0-|
D|---0h2-----2-------0-------0---|---4--------4---|---2-------2---|
A|-------------------------------|-2--------------|-3-------------|
E|-3-----3-------3-------3-------|-------2--------|-------3-------|

e|---------------|-------0-------|---------------|------------2-----|
B|---------1-----|---3-------3---|---------1-----|---1--------------|
G|-----2-------2-|---------------|-----2-------2-|-------0------2-0-|
D|---2-------2---|-----2-------2-|---2-------2---|-----2----0-------|
A|-0-------------|---------------|-0-------------|-3----------------|
E|-------0-------|-0-------0-----|-------0-------|------------------|

e|-------------------------------|----------------|---------------|
B|---0h1---1-------0-------------|---------3------|---------1-----|
G|-------------0-------0---0---0-|-----4--------4-|-----0-------0-|
D|---0h2-----2-------0-------0---|---4--------4---|---2-------2---|
A|-------------------------------|-2--------------|-3-------------|
E|-3-----3-------3-------3-------|-------2--------|-------3-------|

e|---------------|-------0-------|---------2----|
B|---------1-----|---3-------3---|--------------|
G|-----2-------2-|---------------|-----2----2-0-| ---VERSE ENDING--->
D|---2-------2---|-----2-------2-|---2----------|
A|-0-------------|---------------|-0-----3------|
E|-------0-------|-0-------0-----|--------------|

[Verse 1 Ending]
e|---------3-----|---------3-----|---------3---|----------------|
B|---0h1---------|---0h1---------|---0h1-----1-|-0-------0------|
G|-------------0-|-------------0-|-------------|-----0-------0--|
D|---0h2-----2---|---0h2-----2---|---0h2-----2-|---0-------0----|
A|---------------|---------------|-------------|----------------|
E|-3-----3-------|-3-----3-------|-3-----3-----|-3-----3--------|

[Verse 2 & 4 Ending]
e|--------------|
B|---0---0--1-3-|
G|--------------|
D|-----0--------|
A|----------0-2-|
E|-3------------|

[Verse 3 Ending]
e|---------3-----|---------3-----|
B|---0h1---------|---0-----------|
G|-------------0-|-------0-----0-|
D|---0h2-----2---|-----0-----0---|
A|---------------|---------------|
E|-3-----3-------|-3-------3-----|



[Chorus 1]
e|-0-------------|---------------|---------------|-------------|
B|-1-------1-----|---------3-----|---------1-----|---0---0-1-3-|
G|-----0-------0-|-----4-------4-|-----0-------0-|-------------|
D|---2-------2---|---4-------4---|---2-------2---|-----0-------|
A|-3-------------|-2-------------|-3-------------|---------0-2-|
E|-------3-------|-------2-------|-------3-------|-3-----------|

e|----------------|-------0-------|---------------|---1-------2-----|
B|-1--------1-----|---3-------3---|-1-------1-----|-----------------|
G|-----2--------2-|---------------|-----2-------2-|-------2-----2-0-|
D|---2--------2---|-----2-------2-|---2-------2---|-----3---0-------|
A|-0--------------|---------------|-0-------------|-----------------|
E|--------0-------|-0-------0-----|-------0-------|-1---------------|

e|-0-------------|---------------|---------------|-------------|
B|-1-------1-----|---------3-----|---------1-----|---0---0-1-3-|
G|-----0-------0-|-----4-------4-|-----0-------0-|-------------|
D|---2-------2---|---4-------4---|---2-------2---|-----0-------|
A|-3-------------|-2-------------|-3-------------|---------0-2-|
E|-------3-------|-------2-------|-------3-------|-3-----------|

e|----------------|-------0-------|--------------|
B|-1--------1-----|---3-------3---|---------1----|
G|-----2--------2-|---------------|-----2--------|
D|---2--------2---|-----2-------2-|---2------0-2-|
A|-0--------------|---------------|-0-----3------|
E|--------0-------|-0-------0-----|--------------|

e|---------3-----|---------3-----|---------3---|---------------|
B|---0h1---------|---0h1---------|---0h1-----1-|-0-------0-----|
G|-------------0-|-------------0-|-------------|-----0-------0-|
D|---0h2-----2---|---0h2-----2---|---0h2-----2-|---0-------0---|
A|---------------|---------------|-------------|---------------|
E|-3-----3-------|-3-----3-------|-3-----3-----|-3-----3-------|



[Chorus 2]
e|-0-------------|---------------|---------------|-------------|
B|-1-------1-----|---------3-----|---------1-----|---0---0-1-3-|
G|-----0-------0-|-----4-------4-|-----0-------0-|-------------|
D|---2-------2---|---4-------4---|---2-------2---|-----0-------|
A|-3-------------|-2-------------|-3-------------|---------0-2-|
E|-------3-------|-------2-------|-------3-------|-3-----------|

e|----------------|-------0-------|---------------|---1-------2-----|
B|-1--------1-----|---3-------3---|-1-------1-----|-----------------|
G|-----2--------2-|---------------|-----2-------2-|-------2-----2-0-|
D|---2--------2---|-----2-------2-|---2-------2---|-----3---0-------|
A|-0--------------|---------------|-0-------------|-----------------|
E|--------0-------|-0-------0-----|-------0-------|-1---------------|

e|-0-------------|---------------|---------------|-------------|
B|-1-------1-----|---------3-----|---------1-----|---0---0-1-3-|
G|-----0-------0-|-----4-------4-|-----0-------0-|-------------|
D|---2-------2---|---4-------4---|---2-------2---|-----0-------|
A|-3-------------|-2-------------|-3-------------|---------0-2-|
E|-------3-------|-------2-------|-------3-------|-3-----------|

e|----------------|-------0-------|--------------|-------------|
B|-1--------1-----|---3-------3---|---------1----|---0---0-1-3-|
G|-----2--------2-|---------------|-----2--------|-------------|
D|---2--------2---|-----2-------2-|---2------0-2-|-----0-------|
A|-0--------------|---------------|-0-----3------|---------0-2-|
E|--------0-------|-0-------0-----|--------------|-3-----------|

e|---------------|-------0-------|---------------|------------2-----|
B|---------1-----|---3-------3---|---------1-----|---1--------------|
G|-----2-------2-|---------------|-----2-------2-|-------0------2-0-|
D|---2-------2---|-----2-------2-|---2-------2---|-----2----0-------|
A|-0-------------|---------------|-0-------------|-3----------------|
E|-------0-------|-0-------0-----|-------0-------|------------------|

e|---------3-----|---------3-----|---------3---|-----|
B|---0h1---------|---0h1---------|---0h1-----1-|-0~--|
G|-------------0-|-------------0-|-------------|-----|
D|---0h2-----2---|---0h2-----2---|---0h2-----2-|-----|
A|---------------|---------------|-------------|-----|
E|-3-----3-------|-3-----3-------|-3-----3-----|-3~--|
            
Submit corrections

↑ Back to top | Tablatures and chords for acoustic guitar and electric guitar, ukulele, drums are parodies/interpretations of the original songs. You may use it for private study, scholarship, research or language learning purposes only