Home » D » Dandy Warhols »

Dandy Warhols - Bohemian Like You Tabs

Artists:  A B C D E F G H I J K L M N O P Q R S T U V W X Y Z # 

Bohemian Like You Tabs

(ver. 3) Click to play this song!
Dandy Warhols
E|---------------------------------------------------------------------------------|
B|------------------x--7--7--8--x--8--8--8--x--5--5-----x--------x--9--10--10-9--9-|
G|--8--8---9--9--9--x--7--7--7--x--7--7--7--x--6--6--7--x--7--7--x--9--9---9--9--9-|
D|--9--9---9--9--9--x--7--7--7--x--7--7--7--x--7--7--7--x--7--7--x--9--9---9--9--9-|
A|--9--9---9--9--9--x--5--5--5--x--5--7--5--x--7--7--7--x--7--7--x--7--7---7--7--7-|
E|--7--7---7--7--7--x--5--5--5--x--5--5--5--x--5--5--5--x--5--5--x-----------------|


E|---------------------------------------------------------------------------------|
B|--10--10-------------------------------------------------------------------------|
G|--9---9--------------------------------------------------------------------------|
D|--9---9--------------------------------------------------------------------------|
A|--7---7--------------------------------------------------------------------------|
E|---------------------------------------------------------------------------------|


Your fingers should always be in barre chord formation for this song. It makes it hell of a lot easier.. but thats all from me enjoy...
            
Submit corrections

↑ Back to top | Tablatures and chords for acoustic guitar and electric guitar, ukulele, drums are parodies/interpretations of the original songs. You may use it for private study, scholarship, research or language learning purposes only