» » »

Dance Las Vegas - Intro Bass

Artists:  A B C D E F G H I J K L M N O P Q R S T U V W X Y Z # 

Intro Bass

(ver. 1) Click to play this song!
Dance Las Vegas
 Rating:
4/5 (4 votes)
                Here is the bass tab for the composition 'Intro' by Dance! Las Vegas, taken from the 
Demo recorded in lead guitarist Jamie Donnelly's bedroom studio.

The song is frequently used also to open up Dance! Las Vegas' shows.

G|-----11-12-11-9-11-----11-12-11-9-11-|
D|---9---9-------------9---9-----------|
A|-7-----------------7-----------------|
E|-------------------------------------|

G|-----9---11-9-7-9------9---11-9-7-9-|
D|---7---7-------------7---7----------|
A|-5-----------------5----------------|
E|------------------------------------|

G|-----7---9-7-5-7-------7---9-7-5-7--|
D|---5---5-------------5---5----------|
A|-3-----------------3----------------|
E|------------------------------------|

G|-----7---9-7-5-7-------9---11-9-7-9-|
D|---5---5-------------7---7----------|
A|-3-----------------5----------------|
E|------------------------------------|

G|------------------------------------|
D|------------------------------------|
A|-7(let it ring out)-----------------|
E|------------------------------------|

Well there it is, the tab is 100% accurate as it was tabbed out by us Dance! Las Vegas, 
own copyright to the song. All songwriting credits go to Jamie Donnelly.
            
Submit corrections

↑ Back to top | Tablatures and chords for acoustic guitar and electric guitar, ukulele, drums are parodies/interpretations of the original songs. You may use it for private study, scholarship, research or language learning purposes only