» » »

Dance Gavin Dance - Attack Of The Dashing Young And Bold Tabs

Artists:  A B C D E F G H I J K L M N O P Q R S T U V W X Y Z # 

Attack Of The Dashing Young And Bold Tabs

(ver. 3) Click to play this song!
Dance Gavin Dance
 Rating:
4/5 (4 votes)


 Attack Of The Dashing Young And Bold lessons Tabs too difficult? Try these video lessons and learn fast
 
                ----------------------|
----------------------|
-3-------2------------|
-x-------x------4-----|
-2-x12---0-x6---x-----|
----------------2-x6--|     x4

----------------         <
----------7*----          |
-----0-------7*-          |
---4---4--------          | 
----------------          | 
-3--------------          |
                                                |
------------------      |
----------7*------      |
-----0-------7*---      |
---4---4--------7*      |
------------------      |
-3----------------     x2

-------------------|
----------3--------|
-----0------0---0--|
---4---4------4----|
-------------------|
-3-----------------|     x2

-----------------|
-------------7-7-|
---------7-7-----|
-----5-5---------|
-3-3-------------|
-----------------|     x2


-------------------|
----------3--------|
-----0------0---0--|
---4---4------4----|
-------------------|
-3-----------------|     x2


-----------------|
-------------7-7-|
---------7-7-----|
-----5-5---------|
-3-3-------------|
-----------------|    x2


-------------------|
----------3--------|
-----0------0---0--|
---4---4------4----|
-------------------|
-3-----------------|     x2


--------------------|
--7-----8-8-8-/-7-7-|
--7-----7-7-7---7-7-|
--5-x6--5-5-5---5-5-|
--------------------|
--------------------|


-------------------|
----------3--------|
-----0------0---0--|
---4---4------4----|
-------------------|
-3-----------------|     x2


--------------------|
--7-----8-8-8-/-7-7-|
--7-----7-7-7---7-7-|
--5-x6--5-5-5---5-5-|
--------------------|
--------------------|


--------------------|
--------7---7---7---|
--------11--11--11--|
-2-2-2--------------|
-2-2-2--------------|
-0-0-0--------------|     x2


-----------------|
-----------------|
-----------------|
-5-5-5-5---x-----|
-5-5-5-5---x-----|
-3-3-3-3---x-x6--|


-----------------|
-----------------|
-----------------|
-5-5-5-5---------|
-5-5-5-5---12~---|
-3-3-3-3---16~---|


--------------------|
--------7---7---7---|
--------11--11--11--|
-2-2-2--------------|
-2-2-2--------------|
-0-0-0--------------|     x2


-----------------|
-----------------|
-----------------|
-5-5-5-5---x-----|
-5-5-5-5---x-----|
-3-3-3-3---x-x6--|


-----------------|
-----------------|
-----------------|
-5-5-5-5---------|
-5-5-5-5---12~---|
-3-3-3-3---16~---|


----------7*----|
-----0-------7*-|
---4---4--------|
----------------|
-3--------------|

-------------------|
----------7*-------|
-----0-------7*----|
---4---4--------7--|
-------------------|
-3-----------------|


-----------------|
-7--------12-----|
-11-x12---16-x12-|
-----------------|
-----------------|
-----------------|    x2

-5---5---5---5---7---7---7---7---10---10-------|
---7---7---7---7---7---7---7---7----7----7-----|
-----------------------------------------------|
-----------------------------------------------|
-----------------------------------------------|
-----------------------------------------------|    x2
im too lazy to figure out how many times that last part is


---------------------|
---------------------|
---------------------|
-----7p0--11p0--7p0--|
-4h5-----------------|
---------------------|


-----------------------|
-----------------------|
-----------------------|
-----7p0--11p0--11/12--|
-4h5-------------------|
-----------------------|


---------------------|
---------------------|
---------------------|
-----7p0--11p0--7p0--|
-4h5-----------------|
---------------------|


--------------------------|
--------------------------|
--------------------------|
-----7p0--11p0--11h12p11--|
-4h5----------------------|
--------------------------|


---------------------|
---------------------|
---------------------|
-----7p0--11p0--7p0--|
-4h5-----------------|
---------------------|


-----------------------|
-----------------------|
-----------------------|
-----7p0--11p0--11/12--|
-4h5-------------------|
-----------------------|


---------------------|
---------------------|
---------------------|
-----7p0--11p0--7p0--|
-4h5-----------------|
---------------------|


--------------------------|
--------------------------|
--------------------------|
-----7p0--11p0--11h12p11--|
-4h5----------------------|
--------------------------|


back to that other part

-------------|
-7-8-7-------|
-7-7-7-7-----|
-5-5-5-5-x9--|
-------------|
-------------|


------------------|
-7-8-7-------8----|
-7-7-7-7-----7----|
-5-5-5-5-x3--5-x6-|
------------------|
------------------|


-------------|
-7-8-7-------|
-7-7-7-7-----|
-5-5-5-5-x9--|
-------------|
-------------|


------------------|
-7-8-7-------8----|
-7-7-7-7-----7----|
-5-5-5-5-x3--5-x6-|
------------------|
------------------|


go back to the other parts

-14--------14----14-15--|
----15--12----15--------|
------------------------|
------------------------|
------------------------|
------------------------|    x8

-----------------------------|
-------10-8-7p8h8-------7/8--|
-9----------------7-4-5------|
-x---------------------------|
-7-x6------------------------|
-----------------------------|     x2


---
---
-5-
-x-
-3-
--- figure out the pattern

-----------------------------|
-------10-8-7p8h8-------7/8--|
-9----------------7-4-5------|
-x---------------------------|
-7-x6------------------------|
-----------------------------|     x2


---
---
-5-
-x-
-3-
--- figure out the pattern

back to intro


im working on some parts i cannot figure out right now
            
Submit corrections



        Attack Of The Dashing Young And Bold lessons Hard to play? Try these video lessons and learn fast Attack Of The Dashing Young And Bold lessons
        
↑ Back to top | Tablatures and chords for acoustic guitar and electric guitar, ukulele, drums are parodies/interpretations of the original songs. You may use it for private study, scholarship, research or language learning purposes only