» » »

Damned - Smash It Up Tabs

Artists:  A B C D E F G H I J K L M N O P Q R S T U V W X Y Z # 

Smash It Up Tabs

(ver. 3) Click to play this song!
Damned
 Rating:
4/5 (4 votes)


 Smash It Up lessons Tabs too difficult? Try these video lessons and learn fast
 
                (Part)
E-----------------|-----------------|
B-----------------|-----------------|		Play 4 Times.
G--------0--------|-------------0---|		
D------0------0---|-----0-----4---4-|
A----4------4---4-|---4---4-5-------|
E--5--------------|-5---------------|

	  
E-----------------|-----------------|-----------------|-----------------|
B-----------------|-----------------|-----------------|-----------------|	
G--------0--------|--------0--------|-------0---------|-------0---------|
D------0------0---|------0------0---|-----0-----0-----|-----3-----------|
A----4------4---4-|----4------4---4-|---4-----4-------|---3-------------|
E--5--------------|--5--------------|-5---------------|-1---------------|

    
E-----------------|------------0----|
B-0--1--3--0--1---|-0--1--3--3-(3)--|
G--0--0--0--0--0--|--0-----0-----(0)|
D-----------------|-----------------|
A-----------------|-----------------|
E-----------------|-----------------|


          
E-----------------|-----------------|-----------------|-----------------|
B-----------------|-----------------|-----------------|-----------------|
G--------0--------|-------------0---|--------0--------|-------------0---|	
D------0------0---|-----0-----4---4-|------0------0---|-----0-----4---4-|
A----4------4---4-|---4---4-5-------|----4------4---4-|---4---4-5-------|
E--5--------------|-5---------------|--5--------------|-5---------------|

	  
E-----------------|-----------------|-----------------|-----------------|
B-----------------|-----------------|-----------------|-----------------|
G--------0--------|--------0--------|-------0---------|-------0---------|
D------0------0---|------0------0---|-----0-----0-----|-----3-----------|
A----4------4---4-|----4------4---4-|---4-----4-------|---3-------------|
E--5--------------|--5--------------|-5---------------|-1---------------|

    
E-----------------|-------------0---|
B-0--1--3--0--1---|-0--1---3--3-----|
G--0--0--0--0--0--|--0------0-------|
D-----------------|-----------------|
A-----------------|-----------------|
E-----------------|-----------------|


There is a slow flange sweep over these 4 bars

  ^		    ^   	      ^                 ^   	    ^
E-5-0-0-0-0-------|-0--0-0-0-0------|-5--0-0-0-0--(0)-|-0--0-0-0-0--5-0-0-|
B-3-0-0-0-0-------|-3--0-0-0-0------|-3--0-0-0-0--(0)-|-3--0-0-0-0--3-0-0-|
G-----------------|-----------------|-----------------|-------------------|
D-----------------|-----------------|-----------------|-------------------|
A-----------------|-----------------|-----------------|-------------------|
E-----------------|-----------------|-----------------|-------------------|

							     U  U
E-0--0-0--0--0-0--|-0--0-0--0--0-0--|-0--0-0-0-0-0--0-|-0-0--0--0-0-0---|
B-1--1-1--1--1-1--|-1--1-5--5--3-3--|-0--1-1-1-1-1--1-|-1-1--1--1-1-1---|
G-0--0-0--0--0-0--|-0--0------------|-----------------|-----------------|
D-2--2-2--2--2-2--|-2--2------------|-----------------|-----------------|
A-3--3-3- 3--3-3--|-3--3------------|-----------------|-----------------|
E-----------------|-----------------|-----------------|-----------------|

	     			                        rake all chords
E-----------------|-----------------|-----------------|-0---2---0---0---|
B-------0---------|-----------------|-----------------|-0---0---3---2---|
G-----0-----0-----|--------0--------|-----------------|-0---0---0---0---|
D---4-----0-------|-----0-----0-----|-----0-------0---|-2---2---2---2---|
A-5---------------|---4-----4-------|---4---4---2---2-|-2---2---2---2---|
E-----------------|-5---------------|-5-------3-------|-----------------|


	 		   		     		        with fingers
E-----------------|-----------------|-----------------|-----------------|
B-------1----1----|-------3----3----|-------1----1----|-------3--3--3---|
G-----0----0------|-----0----0------|-----0----0------|-----0----0--0---|
D---2-------------|---4-------------|---2-------------|---4-------------|
A-3---------------|-5---------------|-3---------------|-5---------------|
E-----------------|-----------------|-----------------|-----------------|

  rake all chords
E-0---2---0---0---|
B-0---0---3---2---|
G-0---0---0---0---|
D-2---2---2---2---|
A-2---2---2---2---|
E-----------------|


							    X rake    
E-0---------------|----------------|-----0--3--3-3-3--|-3-3-0-2--2-2--0-0-|
B-0-0--0-0--0--0--|-0-0-0--0-0--0-0|-0-0-0--3--3-3-3--|-3-3-0-3--3-3--0-0-|
G-0-0--0-0--0--0--|-0-0-0--0-0--0-0|-0-0-0--0--0-0-0--|-0-0-0-2--2-2--0-0-|
D---2--2-2--2--2--|-2-2-2--2-2--2-2|-2-2----0--0-0-0--|-0-0---0--0-0------|
A---2--2-2--2--2--|-2-2-2--2-2--2-2|-2-2----2---------|-------------------|
E-----------------|----------------|--------3---------|-------------------|

  rake
E--0--------------|
B--0--------------|
G--0--------------|
D--2--------------|
A--2--------------|
E-----------------|

					rake
E-----0--3--3-3-3--|-3-0-2--2-2--0-0-|--0--------------|
B-0-0-0--3--3-3-3--|-3-0-3--3-3--0-0-|--0--------------|
G-0-0-0--0--0-0-0--|-0-0-2--2-2--0-0-|--0--------------|
D-2-2----0--0-0-0--|-0---0--0-0------|--2--------------|
A-2-2----2---------|-----------------|--2--------------|
E--------3---------|-----------------|-----------------|

					rake
E-----0--3--3-3-3--|-3-0-2--2-2--0-0-|--0--------------|
B-0-0-0--3--3-3-3--|-3-0-3--3-3--0-0-|--0--------------|  
G-0-0-0--0--0-0-0--|-0-0-2--2-2--0-0-|--0--------------|  
D-2-2----0--0-0-0--|-0---0--0-0------|--2--------------|
A-2-2----2---------|-----------------|--2--------------|
E--------3---------|-----------------|-----------------|



.... to Smash it Up (part 2)

X  - mute with palm of hand
U  - upstroke
() - incidental note
^  - emphasise note
rake - exagerate the strumming of the chord
       (but not enough for it to be an arpeggio)
            
Submit corrections



        Smash It Up lessons Hard to play? Try these video lessons and learn fast Smash It Up lessons
        
↑ Back to top | Tablatures and chords for acoustic guitar and electric guitar, ukulele, drums are parodies/interpretations of the original songs. You may use it for private study, scholarship, research or language learning purposes only