» » »

Damien Rice - The Greatest Bastard Tabs

Artists:  A B C D E F G H I J K L M N O P Q R S T U V W X Y Z # 

The Greatest Bastard Tabs

(ver. 2) Click to play this song!
Damien Rice
 Rating:
4.1/5 (31 vote)

 The Greatest Bastard lessons Tabs too difficult? Try these video lessons and learn fast
 
                Tuning:

e|---------------------------------------------------------------------------|
B|---------3----------2-----------------------0-------------0----------------|
G|-------4-----------------2----------------0-------------4------------------|
D|-----4---------------------4------------0-------------0--------------------|
A|---2------------------------------------------------0----------------------|
E|--------------------2----------------3-------------------------------------|

e|---------------------------------------------------------------------------|
B|---------3----------2------------------------------------------------------|
G|-------4-----------------2-----------4---4---4/6----6~---------------------|
D|-----4---------------------4-----------------------------------------------|
A|---2-----------------------------------5---5-------------------------------|
E|--------------------2----------------3-------------------------------------|

e|---------------------------------------------------------------------------|
B|---------3----------2----------------0-------------------------------------|
G|-------4-----------------2---------------2----------0----------------------|
D|-----4---------------------4-----------0---0-----------4--2--0-------------|
A|---2------------------------------------------------------------4----------|
E|--------------------2----------------3--------------3----------------------|

e|---------------------------------------------------------------------------|
B|---------0----------------3----------------3--------3---2h3----------------|
G|-------0----------------2----------------0----------2---2------------------|
D|-----2----------------0----------------0--------------2--------------------|
A|----------------------------------------------------0----------------------|
E|---0----------------2----------------3-------------------------------------|

e|---0-----------------------------------------------------------------------|
B|---3-----------------------------------------------------------------------|
G|---2-----------------------------------------------------------------------|
D|---0-----------------------------------------------------------------------|
A|---------------------------------------------------------------------------|
E|---------------------------------------------------------------------------|
            
Submit corrections


        The Greatest Bastard lessons Hard to play? Try these video lessons and learn fast The Greatest Bastard lessons
        
↑ Back to top | Tablatures and chords for acoustic guitar and electric guitar, ukulele, drums are parodies/interpretations of the original songs. You may use it for private study, scholarship, research or language learning purposes only