Home » D » Damien Jurado »

Damien Jurado - Curbside Tabs

Artists:  A B C D E F G H I J K L M N O P Q R S T U V W X Y Z # 

Curbside Tabs

(ver. 1) Click to play this song!
Damien Jurado

[Intro]

e|------0-------0-------0h2-----0---------|
B|-----1-1-----1-1-----3---3---3-3--------|
G|----0---0---0---0---2-----2-2---0-------|
D|---0-----0-0-----0-0-------0------------|
A|--3-------2-----------------------------|
E|----------------------------------------|

e|------0-------0-------0-----0-----------|
B|-----1-1-----1-1-----3-3---3-3----------|
G|----0---0---0---0---2---2-2---0---------|
D|---0-----0-0-----0-0-----0--------------|
A|--3-------2-----------------------------|
E|----------------------------------------|


[Verse]

e|------0-------0-------0-----0h2---------|
B|-----1-1-----1-1-----3-3---3---3--------|
G|----0---0---0---0---2---2-2-----0-------|
D|---0-----0-0-----0-0-----0--------------|
A|--3-------2-----------------------------|
E|----------------------------------------|

e|------0-------0-------0-----2-----------|
B|-----1-1-----1-1-----3-3---3-3----------|
G|----0---0---0---0---2---2-2---0---------|
D|---0-----0-0-----0-0-----0--------------|
A|--3-------2-----------------------------|
E|----------------------------------------|


[Pre-Chorus 1]

e|------2---------------3----0------------|
B|-----3-3--------------3-----3-----------|
G|----0---0-------------0------0----------|
D|---2-----2------------0-------0---------|
A|--0-------------------2-----------------|
E|----------------------------------------|


[Pre-Chorus 2]

e|------2---------------3----0------------|
B|-----3-3--------------3-----3----3------|
G|----0---0-------------0------0----0-----|
D|---2-----2------------0-------0----0----|
A|--0-------------------2-------------0---|
E|----------------------------------------|


[Chorus]

e|------2--------2-------2------0---------|
B|-----3-3------3-3-----3-3----3-3--------|
G|----0---0----0---0---0---0--2---2-------|
D|---2-------0------0-0------0------------|
A|--0-------2--------1--------------------|
E|----------------------------------------|

e|------2-------2-------------------------|
B|-----3-3-----3-3------------------------|
G|----0---0---0---0-----------------------|
D|---2-------0----------------------------|
A|--0-------2-------1---------------------|
E|----------------------------------------|


[Outro]

e|------0-------0-------------------------|
B|-----3-3-----3-3----3-------------------|
G|----0---0---0---0---2-------------------|
D|---0-----0-0-----0--0-------------------|
A|--3-------2-----------------------------|
E|----------------------------------------|


The order of the song is this:

[Intro]
[Verse]
[Pre-Chorus 1]
[Verse]

[Pre-Chorus 2]
[Chorus]

Faster Intro
[Verse]
[Pre-Chorus 1]
[Verse]
[Pre-Chorus 2]


[Chorus]

Faster Intro
[Pre-Chorus 2]


[Chorus]

Fast Outro            
Submit corrections

↑ Back to top | Tablatures and chords for acoustic guitar and electric guitar, ukulele, drums are parodies/interpretations of the original songs. You may use it for private study, scholarship, research or language learning purposes only