Home » D » Damien Jurado »

Damien Jurado - All For You Tabs

Artists:  A B C D E F G H I J K L M N O P Q R S T U V W X Y Z # 

All For You Tabs

(ver. 1) Click to play this song!
Damien Jurado
INTRO (x4)
     C/G     G6
  e|-------------------|
  B|-1-----1-0-----0---|
  G|---0-------0-------|
  D|-2---2---2---2-----|
  A|-------------------|
  E|-3-------3---------|


VERSES (x2)
     C/G     G6
  e|-------------------|
  B|-1-----1-0-----0---|
  G|---0-------0-------|
  D|-2---2---2---2-----| x2
  A|-------------------|
  E|-3-------3---------|
     There...night

     F/C     Am      G6
  e|----------------------------------|
  B|-1-----1-1-----1-0-----0-0-----0--|
  G|---2-------2-------0-------0------|
  D|-----3-------2---2---2---2---2----|
  A|-3-------0------------------------|
  E|-----------------3-------3--------|
     All.....     ...you

CHORUS
     Am              C5/G
  e|----------------------------------|
  B|-1-----1-1-----1-1-----1-1-----1--|
  G|---2-------2-------0-------0------|
  D|-----2-------2---0---0---0---0----| (x2)
  A|-0-------0------------------------|
  E|-----------------3-------3--------|
     How...       ...love

     G       C/G     G       G
  e|----------------------------------|
  B|-0-----0-1-----1-0-----0-0-----0--|
  G|---0-------0-------0-------0------|
  D|-0---0---2---2---0---0---0---0----|
  A|----------------------------------|
  E|-3-------3-------3-------3--------|
     Oh......oh......oh

REPEAT...
____________________________________

C/G G6
C/G G6
C/G G6
C/G G6

 C/G             G6
 There falls the night
 C/G           G6
 Birds pushing sky
 F/C Am     G6
 All... for you

 C/G       G6
 Colors divide
    C/G        G6
 Creation it's size
     F/C Am     G6
 And all... for you


 Am             C5/G
 How great your love is
 Am               C5/G
 How much you are needed
 G   C/G G
 Oh  oh  oh


 C/G         G6
 Time in the world
 C/G                  G6
 The world's still in turn
     F/C Am     G6
 And all... for you

 C/G       G6
 Heaven it seems
 C/G       G6
 Angels applaud
     F/C Am     G6
 And all... for you


 Am             C5/G
 How great your love is
 Am               C5/G
 How much you are needed
 G   C/G G
 Oh  oh  oh


 C/G           G6
 Rain hits the ground
 C/G            G6
 Mountains fall down
 C/G         G6
 Love as our crown
 C/G         G6
 Peace to be found
 F/C Am     G6
 All... for you
     F/C Am     G6
 And all... for you


 Am             C5/G
 How great your love is
 Am               C5/G
 How much you are needed
 G   C/G G G
 Oh  oh  oh

 G   C/G G G
 Oh  oh  oh
 G   C/G G
 Oh  oh  oh

            
Submit corrections

↑ Back to top | Tablatures and chords for acoustic guitar and electric guitar, ukulele, drums are parodies/interpretations of the original songs. You may use it for private study, scholarship, research or language learning purposes only