» » »

Dallas Crane - Open To Close Tabs

Artists:  A B C D E F G H I J K L M N O P Q R S T U V W X Y Z # 

Open To Close Tabs

(ver. 1) Click to play this song!
Dallas Crane
 Rating:
2.1/5 (24 votes)

 Open To Close  lessons Tabs too difficult? Try these video lessons and learn fast
 
                Time - 4/4


Intro  

  D                                  
|-------2----------|-------0----------|--------3--2------|-10-----9---7---5--|
|-----------3---3--|-----------3---3--|---------------3--|-10----------------|
|-----2-------2----|-----2-------2----|-----2------------|-11----------------|
|-0----------------|-0----------------|-0----------------|-------------------|
|------------------|------------------|------------------|-------------------|
|------------------|------------------|------------------|-------------------|

  D 
|-------2-----0----|-------2-----0----|-------2-----0----|-------2-----0----|
|-----3-----3---3--|-----3-----3---3--|-----3-----3---3--|-----3-----3---3--|
|-2---2-----2------|-2---2-----2------|-2---2-----2------|-2---2-----2------|
|-0----------------|-0----------------|-0----------------|-0----------------|
|------------------|------------------|------------------|------------------|
|------------------|------------------|------------------|------------------|

Verse 1

 D
|-------2-----0----|-------2-----0----|-------2-----0----|-------2-----0----|
|-----3-----3---3--|-----3-----3---3--|-----3-----3---3--|-----3-----3---3--|
|-2---2-----2------|-2---2-----2------|-2---2-----2------|-2---2-----2------|
|-0----------------|-0----------------|-0----------------|-0----------------|
|------------------|------------------|------------------|------------------|
|------------------|------------------|------------------|------------------|
      Alone just a   drone i'm sitting  the clock seems to slow it's ticking

  Em                                    D   
|-------7----------|-------7----------|-----10-10---9---7--|-5-----3---2---0--|
|-------8---8---8--|-------8---8---8--|-----10-------------|------------------|
|----9--------9----|-----9-------9----|-----11-------------|------------------|
|-9--9-------------|-9---9------------|-0------------------|------------------|
|-7----------------|-7----------------|--------------------|------------------|
|------------------|------------------|--------------------|------------------|
  Waiting                   for you to  come

Verse 2
                                   
D
The daytime seems to enslave me
                               Em
At night time you always compensate me
              D 
For what goes wrong


Interlude 

  Bm                 F#m               C                 Em 
|-10\9-9\7-7-5---3-|-2---------2-3/5-|-5\3-3-3-------2-|-0---2---3---5/10-|
|------------------|-----------------|-----------------|------------------|
|------------------|-----------------|-----------------|------------------|
|------------------|-----------------|-----------------|------------------|
|------------------|-----------------|-----------------|------------------|
|------------------|-----------------|-----------------|------------------|
|                                                                         |
|                                                                         |
|-------7----------|-------2---------|-------0---------|-------0----------|
|-----7------(7)---|-----2-----------|------------1----|-----0-------0----|
|---7----------(7)-|---2-------------|-----0--------0--|---0-----------0--|
|-9----------------|-4----------4p2--|---2-------------|-2----------------|
|------------------|-----------------|-3---------------|------------------|
|------------------|-----------------|-----------------|------------------|


|-10\9-9\7-7-5---3-|-2---------2-3/5-|-5\3-3---------2-|-0---2---3---5----|
|------------------|-----------------|-----------------|------------------|
|------------------|-----------------|-----------------|------------------|
|------------------|-----------------|-----------------|------------------|
|------------------|-----------------|-----------------|------------------|
|------------------|-----------------|-----------------|------------------|
|                                                                         |
|                                                                         |
|-------7----------|-------2---------|-------0---------|-------0----------|
|-----7------(7)---|-----2-----------|------------1----|-----0-------0----|
|---7----------(7)-|---2-------------|-----0--------0--|---0-----------0--|
|-9----------------|-4----------4p2--|---2-------------|-2----------------|
|------------------|-----------------|-3---------------|------------------|
|------------------|-----------------|-----------------|------------------|

Link

D (with 'Woos')

Verse 3

D
Come in swap your coin for poison
                             Em
I insist there ain't no use avoiding
                  D
The one thing you want

Verse 4

And old ghosts start reappearing
                                        D
In each drop the haunting sounds you're hearing
                    D  
Is an old favourite song


Repeat Interlude x 2


Solo

|-14----14----14----14----|-14-\-12\10-10-/-12-14-|-12-------9--9--/-10/12-|
|-15-15-15-15-15-15-15-15-|-15-\-14\12-12-/-14-15-|-14-------11-11-/-12/14-|
|-------------------------|-----------------------|------------------------|
|-------------------------|-----------------------|------------------------|
|-------------------------|-----------------------|------------------------|
|-------------------------|-----------------------|------------------------|
                               
|-12\(10)--10-10----10|-7---7-6-7---7-8-|-9---9--8--9--12-11-9|-7---7-6-7---7----|
|-14\(12---12-12------|-8---8-7-8---8-9-|-10--10-9--10--------|-8---8-7-8---8----|
|---------------------|-9---9-8-9---9-10|-11--11-10-11--------|-9---9-8-9-----9--|
|---------------------|-----------------|---------------------|------------------|
|---------------------|-----------------|---------------------|------------------|
|---------------------|-----------------|---------------------|------------------|
                    
|------5---9---7-5-|/10-10-10-10-10------|/14-14-14-14-14\-12-10|/12---12-----------|
|------5---8---7-5-|----------------12---|----------------------|---------11--12-13-|
|-4/6--6---9---8-6-|---------------------|----------------------|-------------------|
|------------------|---------------------|----------------------|-------------------|
|------------------|---------------------|----------------------|-------------------|
|------------------|---------------------|----------------------|-------------------|

|-10--------------|-5\--3-3-------2-|-0---2---3-/-5-10-|-10\-8-8-------2-|
|-12--------------|-----------------|------------------|-----------------|
|-----------------|-----------------|------------------|-----------------|
|-----------------|-----------------|------------------|-----------------|
|-----------------|-----------------|------------------|-----------------|
|-----------------|-----------------|------------------|-----------------|

|-0---2---2hb-2---|-10----9---7---5--|-2-------2br------|
|-----------------|------------------|------------------|
|-----------------|------------------|------------------|
|-----------------|------------------|------------------|
|-----------------|------------------|------------------|
|-----------------|------------------|------------------|

D 

Verse 5

D    
The last just now spent their pension
                              Em
I slam the door on my day's detention
          D
I open to close
D
Hypocrisy now I'm showing
                                     Em
Honey raise your glass 'cause I'm proposing
              D 
A toast to us both
             Em 
Cause I'm proposing
              D
A toast to us both

End            
Submit corrections


        Open To Close  lessons Hard to play? Try these video lessons and learn fast Open To Close  lessons
        
↑ Back to top | Tablatures and chords for acoustic guitar and electric guitar, ukulele, drums are parodies/interpretations of the original songs. You may use it for private study, scholarship, research or language learning purposes only