Home » D » Daithi De Nogla »

Daithi De Nogla - Your Love Tabs

Artists:  A B C D E F G H I J K L M N O P Q R S T U V W X Y Z # 

Your Love Tabs

(ver. 1) Click to play this song!
Daithi De Nogla
 Rating:
4.3/5 (22 votes)
                [Chords]
F#m7          Bm7         E         Amaj7
e|-----|    e|-----|   e|-----|   e|-----|
B|--2--|    B|--3--|   B|--0--|   B|--2--|
G|--2--|    G|--2--|   G|--1--|   G|--1--|
D|-----|    D|-----|   D|-----|   D|-----|
A|-----|    A|--2--|   A|-----|   A|--0--|
E|--2--|    E|-----|   E|--0--|   E|-----|

[Intro]
F#m7                Bm7              E                Amaj7
e|----------------|----------------|----------------|----------------|
B|----2-----2---2-|----3-----3---3-|----0-----0---0-|----2-----2---2-|
G|----2-----2---2-|----2-----2---2-|----1-----1---1-|----1-----1---1-|   x2 (on the second time play all Amaj7
D|----------------|----------------|----------------|----------------|       strings together once, instead
A|----------------|--2-------2-----|----------------|--0-------0-----|       of the usual pattern)
E|--2-------2-----|----------------|--0-------0-----|----------------|

[Verse 1]
"Your looks could kill, the pain i feel..."
F#m7                Bm7              E                Amaj7
e|----------------|----------------|----------------|----------------|
B|----2-----2---2-|----3-----3---3-|----0-----0---0-|----2-----2---2-|
G|----2-----2---2-|----2-----2---2-|----1-----1---1-|----1-----1---1-|   x4
D|----------------|----------------|----------------|----------------|
A|----------------|--2-------2-----|----------------|--0-------0-----|
E|--2-------2-----|----------------|--0-------0-----|----------------|

[Pre-Chorus]
"I am wondering how you wandered in"
Bm7                E                F#m7             Amaj7     
e|----------------|----------------|----------------|----------------|
B|----3-----3---3-|----0-----0---0-|----2-----2---2-|----2-----2---2-|
G|----2-----2---2-|----1-----1---1-|----2-----2---2-|----1-----1---1-|
D|----------------|----------------|----------------|----------------|
A|--2-------2-----|----------------|----------------|--0-------0-----|
E|----------------|--0-------0-----|--2-------2-----|----------------|

"I'm asking are you staying, or would you like to stay in.."
Bm7                E                F#m7             Amaj7     ↓(let this note ring)
e|----------------|----------------|----------------|---------------|
B|----3-----3---3-|----0-----0---0-|----2-----2---2-|----2-----0----|
G|----2-----2---2-|----1-----1---1-|----2-----2---2-|----1-----1----|
D|----------------|----------------|----------------|---------------|
A|--2-------2-----|----------------|----------------|--0------------|
E|----------------|--0-------0-----|--2-------2-----|----------0----|
"Cause I..."

[Chorus]
"love to live and I live for you. I live to love and I love you..."
F#m7                Bm7              E                Amaj7
e|----------------|----------------|----------------|----------------|
B|----2-----2---2-|----3-----3---3-|----0-----0---0-|----2-----2---2-|
G|----2-----2---2-|----2-----2---2-|----1-----1---1-|----1-----1---1-|   x2
D|----------------|----------------|----------------|----------------|
A|----------------|--2-------2-----|----------------|--0-------0-----|
E|--2-------2-----|----------------|--0-------0-----|----------------|

"Oooooh..."
F#m7                Bm7              E                Amaj7 (let this note ring)
e|----------------|----------------|----------------|----------|
B|----2-----2---2-|----3-----3---3-|----0-----0---0-|----2-----|
G|----2-----2---2-|----2-----2---2-|----1-----1---1-|----1-----|
D|----------------|----------------|----------------|----------|
A|----------------|--2-------2-----|----------------|----0-----|
E|--2-------2-----|----------------|--0-------0-----|----------|

[Verse 2]
"Your lips could heal the scars they deal..."
F#m7                Bm7              E                Amaj7
e|----------------|----------------|----------------|----------------|
B|----2-----2---2-|----3-----3---3-|----0-----0---0-|----2-----2---2-|
G|----2-----2---2-|----2-----2---2-|----1-----1---1-|----1-----1---1-|   x4
D|----------------|----------------|----------------|----------------|
A|----------------|--2-------2-----|----------------|--0-------0-----|
E|--2-------2-----|----------------|--0-------0-----|----------------|
"Oh, I'll..."

[Chorus]
"love to live and I live for you. I live to love and I love you..."
F#m7                Bm7              E                Amaj7
e|----------------|----------------|----------------|----------------|
B|----2-----2---2-|----3-----3---3-|----0-----0---0-|----2-----2---2-|
G|----2-----2---2-|----2-----2---2-|----1-----1---1-|----1-----1---1-|   x2
D|----------------|----------------|----------------|----------------|
A|----------------|--2-------2-----|----------------|--0-------0-----|
E|--2-------2-----|----------------|--0-------0-----|----------------|

"Yooouuu..."
F#m7                Bm7              E                Amaj7
e|----------------|----------------|----------------|----------------|
B|----2-----2---2-|----3-----3---3-|----0-----0---0-|----2-----2---2-|
G|----2-----2---2-|----2-----2---2-|----1-----1---1-|----1-----1---1-|
D|----------------|----------------|----------------|----------------|
A|----------------|--2-------2-----|----------------|--0-------0-----|
E|--2-------2-----|----------------|--0-------0-----|----------------|

"Youuuu..."
F#m7                Bm7              E                Amaj7    ↓(let this note ring again)
e|----------------|----------------|----------------|-------------|
B|----2-----2---2-|----3-----3---3-|----0-----0---0-|----2-----2--|
G|----2-----2---2-|----2-----2---2-|----1-----1---1-|----1-----1--|
D|----------------|----------------|----------------|-------------|
A|----------------|--2-------2-----|----------------|--0-------0--|
E|--2-------2-----|----------------|--0-------0-----|-------------|
            
Submit corrections

↑ Back to top | Tablatures and chords for acoustic guitar and electric guitar, ukulele, drums are parodies/interpretations of the original songs. You may use it for private study, scholarship, research or language learning purposes only