» » »

Daft Punk - Get Lucky Bass

Artists:  A B C D E F G H I J K L M N O P Q R S T U V W X Y Z # 

Get Lucky Bass

(ver. 3) Click to play this song!
Daft Punk
 Rating:
4/5 (4 votes)

 Get Lucky lessons Tabs too difficult? Try these video lessons and learn fast
 
                G|-----------------------------------------------------------------|
D|-----------------------------------------------------------------|
A|-2-------2-----0-2-------2-------5-------5-----4-5-------5-------|
E|-----------------------------------------------------------------|
B|-----------------------------------------------------------------|
   1 e + a 2 e + a 3 e + a 4 e + a 1 e + a 2 e + a 3 e + a 4 e + a 

G|-----------------------------------------------------------------|
D|-4-------4-----4-----4-------4-4-2-------2-----2-------------2-2-|
A|-----------------------------------------------------------------|
E|-----------------------------------------------------------------|
B|-----------------------------------------------------------------|
   1 e + a 2 e + a 3 e + a 4 e + a 1 e + a 2 e + a 3 e + a 4 e + a 

0:07
G|-----------------------------------------------------------------|
D|-------------------------------------------------------------2---|
A|-2-------2-----2-------------2---5-------5---4-5-----5-----5-----|
E|-----------------------------------------------------------------|
B|-----------------------------------------------------------------|
   1 e + a 2 e + a 3 e + a 4 e + a 1 e + a 2 e + a 3 e + a 4 e + a 

G|-----------------------------------------------------------------|
D|-4---------------------------4-4---------------------------------|
A|---------------------------------------------------------0---4---|
E|---------2---2-2-----2-----------0-------0---0-0-----0-----------|
B|-----------------------------------------------------------------|
   1 e + a 2 e + a 3 e + a 4 e + a 1 e + a 2 e + a 3 e + a 4 e + a 

0:16 Verse
G|-----------------------------------------------------------------|
D|-----------------------------------------------------------------|
A|---------------0-2-----------------------------4-5---------------|
E|-------------------------------------------------------------0-0-|
B|-0-------0-----------0-------5-5-3-------3-----------3-----------|
   1 e + a 2 e + a 3 e + a 4 e + a 1 e + a 2 e + a 3 e + a 4 e + a 

G|-----------------------------------------------------------------|
D|---------------4-------------------------------------2-----------|
A|-----------------------------------------------------------------|
E|-2-------2-----------2-------2-0---------0-------0---------------|
B|-------------------------------------------------------------0---|
   1 e + a 2 e + a 3 e + a 4 e + a 1 e + a 2 e + a 3 e + a 4 e + a 

0:24 
G|-----------------------------------------------------------------|
D|-----------------------------------------------------------------|
A|-----2---------2-------------------------------5-----------------|
E|-----------------------------------------------------------------|
B|-0-------0-----------0---0-0-2---3-------3-----------3---3-3-5---|
   1 e + a 2 e + a 3 e + a 4 e + a 1 e + a 2 e + a 3 e + a 4 e + a 

G|-----------------------------------------------------------------|
D|---------------4-------------------------------2-----------------|
A|---------------------------------------------------------0-2-2---|
E|-2-------2-----------2-------0---0-------0-----------0-2---------|
B|-----------------------------------------------------------------|
   1 e + a 2 e + a 3 e + a 4 e + a 1 e + a 2 e + a 3 e + a 4 e + a 

0:32 Pre Chorus
G|-----------------------------------------------------------------|
D|-----------------------------------------------------------------|
A|---------------2-------------------------------5-----------------|
E|-------------------------------------------------------------0---|
B|-0-------0-----------0-------2-2-3-------3-----------3-----------|
   1 e + a 2 e + a 3 e + a 4 e + a 1 e + a 2 e + a 3 e + a 4 e + a 

G|-----------------------------------------------------------------|
D|---------------4-----------------------------------------7-9-7---|
A|-----------------------------------------------7-----9---------9-|
E|-2-------2-----------2-------0---0-------0-----------------------|
B|-----------------------------------------------------------------|
   1 e + a 2 e + a 3 e + a 4 e + a 1 e + a 2 e + a 3 e + a 4 e + a 

0:40
G|-----------------------------------------------------------------|
D|-----------------------------------------------------------------|
A|-----------------------------------------------5-----------------|
E|-7-------7-----7-------------------------------------------------|
B|-------------------0-0-------2-2-3-------3-----------3---3-3-5---|
   1 e + a 2 e + a 3 e + a 4 e + a 1 e + a 2 e + a 3 e + a 4 e + a 

G|-----------------------------------------------------------------|
D|-----4---------4-------------------------------------------------|
A|-----------------------------------------------7-----7---7-------|
E|-2-------2-----------2-------0---0-------0-------------9---9-7---|
B|-----------------------------------------------------------------|
   1 e + a 2 e + a 3 e + a 4 e + a 1 e + a 2 e + a 3 e + a 4 e + a 

0:49 Chorus
G|-----------------------------------------------------------------|
D|-----------------------------------------------------------------|
A|-----------------------------------------------------------------|
E|-----------------------------------------------------------------|
B|-0-------0-------0-0-0---0---2-2-3-------3-------3-3-3---3-------|
   1 e + a 2 e + a 3 e + a 4 e + a 1 e + a 2 e + a 3 e + a 4 e + a 

G|-----------------------------------------------------------------|
D|-------------------------------------------------2---2-----------|
A|-------------------------------------------------------------0-4-|
E|-2-------2-------2-2-2---2-----2-0-------0-----0---0-----0-------|
B|-----------------------------------------------------------------|
   1 e + a 2 e + a 3 e + a 4 e + a 1 e + a 2 e + a 3 e + a 4 e + a 

0:57
G|-----------------------------------------------------------------|
D|-----------------------------------------------------------------|
A|---------------0-2-------------------------------5---------------|
E|---------------------------------------------------------0---0-0-|
B|-0-------0---------0-0---0-------3-------3-----------3-----------|
   1 e + a 2 e + a 3 e + a 4 e + a 1 e + a 2 e + a 3 e + a 4 e + a 

G|-----------------------------------------------------------------|
D|---------------4-------4-----------------------------------------|
A|---------------------------------------------------------7-9-9---|
E|-2-------2-------------------2-2-0-------0-----7-9-7-9-7---------|
B|-----------------------------------------------------------------|
   1 e + a 2 e + a 3 e + a 4 e + a 1 e + a 2 e + a 3 e + a 4 e + a 

1:05 Interlude
G|-----------------------------------------------------------------|
D|-----------------------------------------------------------------|
A|-2-------2-----0-2-------2-------5-------5-----4-5-------5-------|
E|-----------------------------------------------------------------|
B|-----------------------------------------------------------------|
   1 e + a 2 e + a 3 e + a 4 e + a 1 e + a 2 e + a 3 e + a 4 e + a 

G|-----------------------------------------------------------------|
D|-4-------4-----4-----4-------4-4-2-------2-----2-------------2-2-|
A|-----------------------------------------------------------------|
E|-----------------------------------------------------------------|
B|-----------------------------------------------------------------|
   1 e + a 2 e + a 3 e + a 4 e + a 1 e + a 2 e + a 3 e + a 4 e + a 

1:13
G|-----------------------------------------------------------------|
D|-------------------------------------------------------------2---|
A|-2-------2-----2-------------2---5-------5---4-5-----5-----5-----|
E|-----------------------------------------------------------------|
B|-----------------------------------------------------------------|
   1 e + a 2 e + a 3 e + a 4 e + a 1 e + a 2 e + a 3 e + a 4 e + a 

G|-----------------------------------------------------------------|
D|-4---------------------------4-4---------------------------------|
A|---------------------------------------------------------0---4---|
E|---------2---2-2-----2-----------0-------0---0-0-----0-----------|
B|-----------------------------------------------------------------|
   1 e + a 2 e + a 3 e + a 4 e + a 1 e + a 2 e + a 3 e + a 4 e + a 

1:22 Verse
G|-----------------------------------------------------------------|
D|-----------------------------------------------------------------|
A|---------------0-2-----------------------------4-5---------------|
E|-------------------------------------------------------------0-0-|
B|-0-------0-----------0-------5-5-3-------3-----------3-----------|
   1 e + a 2 e + a 3 e + a 4 e + a 1 e + a 2 e + a 3 e + a 4 e + a 

G|-----------------------------------------------------------------|
D|---------------2-4-----------------------------------2-----------|
A|-----------------------------------------------------------------|
E|-2-------2-----------2-------2-0---------0-------0---------------|
B|-------------------------------------------------------------0---|
   1 e + a 2 e + a 3 e + a 4 e + a 1 e + a 2 e + a 3 e + a 4 e + a 

1:30
G|-----------------------------------------------------------------|
D|-----------------------------------------------------------------|
A|-----2---------2-------------------------------5-----------------|
E|-----------------------------------------------------------------|
B|-0-------0-----------0---0-0-2---3-------3-----------3---3-3-5---|
   1 e + a 2 e + a 3 e + a 4 e + a 1 e + a 2 e + a 3 e + a 4 e + a 

G|-----------------------------------------------------------------|
D|---------------4-------------------------------2-----------------|
A|---------------------------------------------------------0-2-2---|
E|-2-------2-----------2-------0---0-------0-----------0-2---------|
B|-----------------------------------------------------------------|
   1 e + a 2 e + a 3 e + a 4 e + a 1 e + a 2 e + a 3 e + a 4 e + a 

1:39 Pre Chorus
G|-----------------------------------------------------------------|
D|-----------------------------------------------------------------|
A|---------------2-------------------------------5-----------------|
E|-------------------------------------------------------------0---|
B|-0-------0-----------0-------2-2-3-------3-----------3-----------|
   1 e + a 2 e + a 3 e + a 4 e + a 1 e + a 2 e + a 3 e + a 4 e + a 

G|-----------------------------------------------------------------|
D|---------------4-----------------------------------------7-9-7---|
A|-----------------------------------------------7-----9---------9-|
E|-2-------2-----------2-------0---0-------0-----------------------|
B|-----------------------------------------------------------------|
   1 e + a 2 e + a 3 e + a 4 e + a 1 e + a 2 e + a 3 e + a 4 e + a 

1:46
G|-----------------------------------------------------------------|
D|-----------------------------------------------------------------|
A|-----------------------------------------------5-----------------|
E|-7-------7-----7-------------------------------------------------|
B|-------------------0-0-------2-2-3-------3-----------3---3-3-5---|
   1 e + a 2 e + a 3 e + a 4 e + a 1 e + a 2 e + a 3 e + a 4 e + a 

G|-----------------------------------------------------------------|
D|-----4---------4-------------------------------------------------|
A|-----------------------------------------------7-----7---7-------|
E|-2-------2-----------2-------0---0-------0-------------9---9-7---|
B|-----------------------------------------------------------------|
   1 e + a 2 e + a 3 e + a 4 e + a 1 e + a 2 e + a 3 e + a 4 e + a 

1:55 Chorus
G|-----------------------------------------------------------------|
D|-----------------------------------------------------------------|
A|-----------------------------------------------4-5---------------|
E|-7-------7-----7---------------------------------------------0---|
B|-------------------0-0---0-----2-3---3---3---------3-3---3-------|
   1 e + a 2 e + a 3 e + a 4 e + a 1 e + a 2 e + a 3 e + a 4 e + a 

G|-----------------------------------------------------------------|
D|---------------4-------------------------------------------------|
A|---------------------------------------------5-7-----7---7-9-7---|
E|-2-------2-----------2-------0---0-------0---------9---9-------9-|
B|-----------------------------------------------------------------|
   1 e + a 2 e + a 3 e + a 4 e + a 1 e + a 2 e + a 3 e + a 4 e + a 

Rest

2:19
G|-------------|
D|-----7-9-----|
A|-9-----------|
E|---------7---|
B|-------------|
   + a 4 e + a

Rest

2:28
G|-----------------------------------------------------------------|
D|-----------------------------------------------------------------|
A|-----------------------------------------------------------------|
E|-----------------------------------------------------------0-2---|
B|-----0---0---0-0-----0-------2---3-------3---3-3-----3-----------|
   1 e + a 2 e + a 3 e + a 4 e + a 1 e + a 2 e + a 3 e + a 4 e + a 

G|-----------------------------------------------------------------|
D|-----------------------------------------------------------------|
A|---------------------------------------------------------7-9-7---|
E|-------------2-2-----2-------0--------------0-0------7-9-------9-|
B|-----------------------------------------------------------------|
   1 e + a 2 e + a 3 e + a 4 e + a 1 e + a 2 e + a 3 e + a 4 e + a 

2:37
G|------------------------------------------------------------------|
D|o-----------------------------------------------------------------|
A|------------------------------------------------------------------|
E|o-----------------------------------------------------------0-2---|
B|----------0---0-0-----0-------2---3-------3---3-3-----3-----------|
    1 e + a 2 e + a 3 e + a 4 e + a 1 e + a 2 e + a 3 e + a 4 e + a 

G|------------------------------------------------------------------|
D|-----------------------------------------------------------------o|
A|---------------------------------------------------------7-9-7----|x4
E|-------------2-2-----2-------0--------------0-0------7-9-------9-o|
B|------------------------------------------------------------------|
   1 e + a 2 e + a 3 e + a 4 e + a 1 e + a 2 e + a 3 e + a 4 e + a 

3:09 Chorus
G|-----------------------------------------------------------------|
D|-----------------------------------------------------------------|
A|-----------------------------------------------5-----------------|
E|-7-------7-----5-7-----------------------------------------0-2---|
B|---------------------0---0---2-2-3-------3-----------3-----------|
   1 e + a 2 e + a 3 e + a 4 e + a 1 e + a 2 e + a 3 e + a 4 e + a 

G|-----------------------------------------------------------------|
D|---------------4-------------------------------------------------|
A|---------------------------------------------------------7-9-7---|
E|---------------------2-------0---0-------0-----------7-9-------9-|
B|-----------------------------------------------------------------|
   1 e + a 2 e + a 3 e + a 4 e + a 1 e + a 2 e + a 3 e + a 4 e + a 

3:18
G|-----------------------------------------------------------------|
D|-----------------------------------------------------------------|
A|-----------------------------------------------5-----------------|
E|-7-------7-----5-7-----------------------------------------0-2---|
B|---------------------0---0---2-2-3-------3-----------3-----------|
   1 e + a 2 e + a 3 e + a 4 e + a 1 e + a 2 e + a 3 e + a 4 e + a 

G|-----------------------------------------------------------------|
D|-------------2-4-------------------------------------------------|
A|-----------------------------------------------5-7-------7-9-7---|
E|---------------------2-------0---0-------0-----------7-9-------9-|
B|-----------------------------------------------------------------|
   1 e + a 2 e + a 3 e + a 4 e + a 1 e + a 2 e + a 3 e + a 4 e + a 

3:26
G|-----------------------------------------------------------------|
D|-----------------------------------------------------------------|
A|-----------------------------------------------5-----------------|
E|---------7---5-7-------------------------------------------0-2---|
B|---------------------0-------2---3-------3-----------3-----------|
   1 e + a 2 e + a 3 e + a 4 e + a 1 e + a 2 e + a 3 e + a 4 e + a 

G|-----------------------------------------------------------------|
D|-------------2-4-------------------------------------------------|
A|-----------------------------------------------5-7-------7-9-7---|
E|---------------------2-------0---0-------0-----------7-9-------9-|
B|-----------------------------------------------------------------|
   1 e + a 2 e + a 3 e + a 4 e + a 1 e + a 2 e + a 3 e + a 4 e + a 

3:34
G|-----------------------------------------------------------------|
D|-----------------------------------------------------------------|
A|-----------------------------------------------5-----------------|
E|---------7---5-7-------------------------------------------0-2-2-|
B|---------------------0---0---2---3-------3-----------3-----------|
   1 e + a 2 e + a 3 e + a 4 e + a 1 e + a 2 e + a 3 e + a 4 e + a 

G|-----------------------------------------------------------------|
D|-------------2-4-----------------------------------------7-9-----|
A|-----------------------------------------------5-7---9-----------|
E|---------------------2-------0---0-------0-------------------7---|
B|-----------------------------------------------------------------|
   1 e + a 2 e + a 3 e + a 4 e + a 1 e + a 2 e + a 3 e + a 4 e + a 

3:43
G|-----------------------------------------------------------------|
D|-----------------------------------------------------------------|
A|-2-------2-----0-2-------2-------5-------5-----4-5-------5-------|
E|-----------------------------------------------------------------|
B|-----------------------------------------------------------------|
   1 e + a 2 e + a 3 e + a 4 e + a 1 e + a 2 e + a 3 e + a 4 e + a 

G|-----------------------------------------------------------------|
D|-4-------4-----4-----4-------4-4-2-------2-----2-------------2-2-|
A|-----------------------------------------------------------------|
E|-----------------------------------------------------------------|
B|-----------------------------------------------------------------|
   1 e + a 2 e + a 3 e + a 4 e + a 1 e + a 2 e + a 3 e + a 4 e + a 

G|-----------------------------------------------------------------|
D|-------------------------------------------------------------2---|
A|-2-------2-----2-------------2---5-------5---4-5-----5-----5-----|
E|-----------------------------------------------------------------|
B|-----------------------------------------------------------------|
   1 e + a 2 e + a 3 e + a 4 e + a 1 e + a 2 e + a 3 e + a 4 e + a 

G|-----------------------------------------------------------------|
D|-4---------------------------4-4---------------------------------|
A|---------------------------------------------------------0---4---|
E|---------2---2-2-----2-----------0-------0---0-0-----0-----------|
B|-----------------------------------------------------------------|
   1 e + a 2 e + a 3 e + a 4 e + a 1 e + a 2 e + a 3 e + a 4 e + a 

G|-----------------------------------------------------------------|
D|-----------------------------------------------------------------|
A|-2-------2-----0-2-------2-------5-------5-----4-5-------5-------|
E|-----------------------------------------------------------------|
B|-----------------------------------------------------------------|
   1 e + a 2 e + a 3 e + a 4 e + a 1 e + a 2 e + a 3 e + a 4 e + a 

G|-----------------------------------------------------------------|
D|-4-------4-----4-----4-------4-4-2-------2-----2-------------2-2-|
A|-----------------------------------------------------------------|
E|-----------------------------------------------------------------|
B|-----------------------------------------------------------------|
   1 e + a 2 e + a 3 e + a 4 e + a 1 e + a 2 e + a 3 e + a 4 e + a 
            
Submit corrections


        Get Lucky lessons Hard to play? Try these video lessons and learn fast Get Lucky lessons
        
↑ Back to top | Tablatures and chords for acoustic guitar and electric guitar, ukulele, drums are parodies/interpretations of the original songs. You may use it for private study, scholarship, research or language learning purposes only