» » »

Daft Punk - Digital Love Tabs

Artists:  A B C D E F G H I J K L M N O P Q R S T U V W X Y Z # 

Digital Love Tabs

(ver. 4) Click to play this song!
Daft Punk
 Rating:
4.3/5 (20 votes)

 Digital Love lessons Tabs too difficult? Try these video lessons and learn fast
 
                [Intro]
e|------------------------------------|
B|---------------------------7--------|
G|----------------------7---9-9--X-9p7|
D|------------4------7h9-------9------|
A|--5-5--4--------5-------------------|
E|------------------------------------| X4

[Verse 1]
    D D  C#m  F#m  E
e|--5-5--4----9-----7-----------------|
B|--7-7--5----10----9-----------------|
G|--7-7--6----11----9-----------------|
D|--7-7--6----11----9-----------------|
A|--5-5--4----9-----7-----------------|
E|--X-X--X----X-----X-----------------| X25

[Chorus 1]
    D         C#      F#m        E 
e|--5-5-----4-4-----9--9------7--7--7-|
B|--7-7-----6-6-----10-10-----9--9--9-|
G|--7-7-----6-6-----11-11-----9--9--9-|
D|--7-7-----6-6-----11-11-----9--9--9-|
A|--5-5-----4-4-----9--9------7--9--9-|
E|--X-X-----X-X-----X--X------X--X--X-| X4

[Verse 2]
    D D  C#m  F#m  E
e|--5-5--4----9-----7-----------------|
B|--7-7--5----10----9-----------------|
G|--7-7--6----11----9-----------------|
D|--7-7--6----11----9-----------------|
A|--5-5--4----9-----7-----------------|
E|--X-X--X----X-----X-----------------| X4

[Bridge 1]
    D   Dsus2 D    A5 A5sus2 A5 A5sus2|D   Dsus2 D   A5      A5^7 A5
e|--5--5-5-5-5-----X---X---X---X-------5--5-5-5-5----X---X--X--X--X--------|
B|--7--7-7-5-7-----10--12--10--12------7--7-7-5-7----10--10-10-9--10-------|
G|--7--7-7-7-7-----9---9---9---9-------7--7-7-7-7----9---9--9--9--9--------|
D|--7--7-7-7-7-----7---7---7---7-------7--7-7-7-7----7---7--7--7--7--------|
A|--5--5-5-5-5-----X---X---X---X-------5--5-5-5-5----X---X--X--X--X--------|
E|--X--X-X-X-X-----X---X---X---X-------X--X-X-X-X----X---X--X--X--X--------|  X2


    D   Dsus2 D    A5     A5^7 A5     |D   Dsus2 D   A5      
e|--5--5-5-5-5-----X---X---X---X-------5--5-5-5-5----X---X--X--X-X--X--X--|
B|--7--7-7-5-7-----10--10--9---10------7--7-7-5-7----10--10-10-9-10-12-10-|
G|--7--7-7-7-7-----9---9---9---9-------7--7-7-7-7----9---9--9--9-9--9--9--|
D|--7--7-7-7-7-----7---7---7---7-------7--7-7-7-7----7---7--7--7-7--7--7--|
A|--5--5-5-5-5-----X---X---X---X-------5--5-5-5-5----X---X--X--X-X--X--X--|
E|--X--X-X-X-X-----X---X---X---X-------X--X-X-X-X----X---X--X--X-X--X--X--| X4
                /\                     |
(last two times | with the bridge riff |   )
                |                      \/
[Bridge riff]
   Voice                                 Guitar (2nd time octave up)
e|------------------------------------------------------------------------|
B|------------------------------------------------------------------------|
G|-------------------7---9--------------------------------7-7b9-----------|
D|-------7---9---7---------------------------7---9---7--------------------|
A|--9------------------------------------9--------------------------------|
E|------------------------------------------------------------------------| X2

[Solo]
    D D  C#m  F#m  E
e|--5-5--4----9-----7-----------------|
B|--7-7--5----10----9-----------------|
G|--7-7--6----11----9-----------------|
D|--7-7--6----11----9-----------------|
A|--5-5--4----9-----7-----------------|
E|--X-X--X----X-----X-----------------| X4

    D         C#      F#m        E 
e|--5-5-----4-4-----9--9------7--7--7-|
B|--7-7-----6-6-----10-10-----9--9--9-|
G|--7-7-----6-6-----11-11-----9--9--9-|
D|--7-7-----6-6-----11-11-----9--9--9-|
A|--5-5-----4-4-----9--9------7--9--9-|
E|--X-X-----X-X-----X--X------X--X--X-| X4

    D D  C#m  F#m  E
e|--5-5--4----9-----7-----------------|
B|--7-7--5----10----9-----------------|
G|--7-7--6----11----9-----------------|
D|--7-7--6----11----9-----------------|
A|--5-5--4----9-----7-----------------|
E|--X-X--X----X-----X-----------------| X3

[Outro]
e|------------------------------------|
B|---------------------------7--------|
G|----------------------7---9-9--X-9p7|
D|------------4------7h9-------9------|
A|--5-5--4--------5-------------------|
E|------------------------------------| X4
            
Submit corrections


        Digital Love lessons Hard to play? Try these video lessons and learn fast Digital Love lessons
        
↑ Back to top | Tablatures and chords for acoustic guitar and electric guitar, ukulele, drums are parodies/interpretations of the original songs. You may use it for private study, scholarship, research or language learning purposes only