» » »

Dads - Shit Twins Tabs

Artists:  A B C D E F G H I J K L M N O P Q R S T U V W X Y Z # 

Shit Twins Tabs

(ver. 1) Click to play this song!
Dads
 Rating:
3.8/5 (21 vote)

 Shit Twins  lessons Tabs too difficult? Try these video lessons and learn fast
 
                Tuning:DGDF#Ad

Chords:

      G      A      Bm     D     

d |---0------0------0------0---------------|
A |---0------0------0------0---------------|
F#|---3------0------3------3---------------|
D |---0------0------0------0---------------|
G |---0------2------4-----(7)--------------|
D |------------------------0---------------|

INTRO: 

d |---0-0-----------------0-0-0-0------0-0-----------------0-0-0-0---------|
A |---0--0----------------0-0-0-0------0--0----------------0-0-0-0---------|
F#|---3------3p0-----0-0--0-0-0-2------3------3p0-----0-0--0-0-0-2---------|
D |---0----------2/4---0--0-0-0-0------0----------2/4-4-0--0-0-0-0---------|
G |--------0-----------0--------------------0-----------0------------------|
D |--------------------5--------------------------------5------------------|



d |---------------0--0---------------------------0-0-0-0-------------------|
A |---------------0----0-------------------------0-0-0-0-------------------|
F#|---------------3----------3p0--------0---0----0-0-0-2-------------------|
D |---------------0---------------2/4-------0----0-0-0-0-------------------|
G |-----------------------0-----------------0------------------------------|
D |-----------------------------------------5------------------------------|
       There is a chest of skin, of drawers, with pictures of waterspouts

d |---------------0--0---------------------------0-0-0-0-------------------|
A |---------------0----0-------------------------0-0-0-0-------------------|
F#|---------------3----------3p0--------0---0----0-0-0-2-------------------|
D |---------------0---------------2/4-------0----0-0-0-0-------------------|
G |-----------------------0-----------------0------------------------------|
D |-----------------------------------------5------------------------------|
           coming out from the ocean and into the mainland 

d |---------------0--0---------------------------0-0-0-0-------------------|
A |---------------0----0-------------------------0-0-0-0-------------------|
F#|---------------3----------3p0--------0---0----0-0-0-2-------------------|
D |---------------0---------------2/4-------0----0-0-0-0-------------------|
G |-----------------------0-----------------0------------------------------|
D |-----------------------------------------5------------------------------|
   where you once lived before when you were younger before you learned

d |---------------0--0---------------------------0-0-0-0-------------------|
A |---------------0----0-------------------------0-0-0-0-------------------|
F#|---------------3----------3p0--------0---0----0-0-0-2-------------------|
D |---------------0---------------2/4-------0----0-0-0-0-------------------|
G |-----------------------0-----------------0------------------------------|
D |-----------------------------------------5------------------------------|
           how to hope, want, or wish


d |---0-0-----------------0-0-0-0------0-0-----------------0-0-0-0---------|
A |---0--0----------------0-0-0-0------0--0----------------0-0-0-0---------|
F#|---3------3p0-----0-0--0-0-0-2------3------3p0-----0-0--0-0-0-2---------|
D |---0----------2/4---0--0-0-0-0------0----------2/4-4-0--0-0-0-0---------|
G |--------0-----------0--------------------0-----------0------------------|
D |--------------------5--------------------------------5------------------|


d |---------------0--0---------------------------0-0-0-0-------------------|
A |---------------0----0-------------------------0-0-0-0-------------------|
F#|---------------3----------3p0--------0---0----0-0-0-2-------------------|
D |---------------0---------------2/4---4---0----0-0-0-0-------------------|
G |-----------------------0-----------------0------------------------------|
D |-----------------------------------------5------------------------------|
          Your step became unsteady once, even more, every time

d |---------------0--0---------------------------0-0-0-0-------------------|
A |---------------0----0-------------------------0-0-0-0-------------------|
F#|---------------3----------3p0--------0---0----0-0-0-2-------------------|
D |---------------0---------------2/4-------0----0-0-0-0-------------------|
G |-----------------------0-----------------0------------------------------|
D |-----------------------------------------5------------------------------|
        you would stand on shrapnel. 
 
d |-----------------0--0---------------------------0-0-0-0-----------------|
A |-----------------0----0-------------------------0-0-0-0-----------------|
F#|-----------------3----------3p0--------0---0----0-0-0-2-----------------|
D |-----------------0---------------2/4-------0----0-0-0-0-----------------|
G |-------------------------0-----------------0----------------------------|
D |-------------------------------------------5----------------------------|
  Underneath your feet, there was a growth under your skin, an addition of pride, 

d |---------------0--0---------------------------0-0-0-0-------------------|
A |---------------0----0-------------------------0-0-0-0-------------------|
F#|---------------3----------3p0--------0---0----0-0-0-2-------------------|
D |---------------0---------------2/4-------0----0-0-0-0-------------------|
G |-----------------------0-----------------0------------------------------|
D |-----------------------------------------5------------------------------|
       for your  newfound wasteland 
d |---------------0--0---------------------------0-0-0-0-------------------|
A |---------------0----0-------------------------0-0-0-0-------------------|
F#|---------------3----------3p0--------0---0----0-0-0-2-------------------|
D |---------------0---------------2/4-------0----0-0-0-0-------------------|
G |-----------------------0-----------------0------------------------------|
D |-----------------------------------------5------------------------------|
                                   But even worse, the future you see, 
 
d |---------------0--0---------------------------0-0-0-0-------------------|
A |---------------0----0-------------------------0-0-0-0-------------------|
F#|---------------3----------3p0--------0---0----0-0-0-2-------------------|
D |---------------0---------------2/4-------0----0-0-0-0-------------------|
G |-----------------------0-----------------0------------------------------|
D |-----------------------------------------5------------------------------|
                      the future you bring, the future you are completely okay with. 
 
d |-----------0--0---------------------------0-0-0-0-----------------------|
A |-----------0----0-------------------------0-0-0-0-----------------------|
F#|-----------3----------3p0--------0---0----0-0-0-2-----------------------|
D |-----------0---------------2/4-------0----0-0-0-0-----------------------|
G |-------------------0-----------------0----------------------------------|
D |-------------------------------------5----------------------------------|
       I could wait up sick, waiting for a response, I could wait up 

d |---------------0--0---------------------------0-0-0-0-------------------|
A |---------------0----0-------------------------0-0-0-0-------------------|
F#|---------------3----------3p0--------0---0----0-0-0-2-------------------|
D |---------------0---------------2/4-------0----0-0-0-0-------------------|
G |-----------------------0-----------------0------------------------------|
D |-----------------------------------------5------------------------------|
      waiting for anything, and it?s something that you?re completely okay with. 

 

CHORUS 

d |-----------------------------------------------------------------------|
A |---0---0--0---0--0---0--0---0-------0---0--0---0--0---0--0---0---------|
F#|-----3------3------3------3-----------3------3------3------3-----------|
D |-----------------------------------------------------------------------|
G |--0-------------------------------2------------------------------------|
D |-----------------------------------------------------------------------|
                       You?ve  been  standing    outside    of   my 

d |-----------------------------------------------------------------------|
A |---0---0--0---0--0---0--0---0-------0---0--0---0--0---0--0---0---------|
F#|-----3------3------3------3-----------0------0------0------0-----------|
D |----------------------------------0------------------------------------|             X2
G |--4-------------------------------7------------------------------------|
D |----------------------------------0------------------------------------|
     apartment with your mouth open wide, and I haven?t heard enough of it.                     





 G  
 Tell me, tell me, Miranda, 
 A
 where do you see yourself tomorrow? 
 Bm
 Do you worry each Wednesday, 
          D
 when the week is almost over, 
 G
 where you will sleep 
 A
 where you will sleep 
      Bm
 your sanctuary is Missouri in May, 
       D
 and I still insist on cutting my tongue off. 


CHORUS 

d |---------0------0------0------------------0------0------0--------------|   
A |-----0---0--0---0--0---0--0---0-------0---0--0---0--0---0--0---0-------|
F#|--3----3------3------3------3-----------3------3------3------3---------|
D |--0--------------------------------------------------------------------|
G |--0--------------------------------2-----------------------------------|
D |-----------------------------------------------------------------------|
                       You?ve  been  standing    outside    of   my 

d |-----------------------------------------------------------------------|
A |---0---0--0---0--0---0--0---0-------0---0--0---0--0---0--0---0---------|
F#|-----3------3------3------3-----------0------0------0------0-----------|
D |----------------------------------0------------------------------------|             X2
G |--4-------------------------------7------------------------------------|
D |----------------------------------0------------------------------------|
     apartment with your mouth open wide, and I haven?t heard enough of it.                     


 G                       A
 I will not speak of the crash, 
                      Bm
 cause if it is never spoken of, 
                         D
 then history will never know it happened. 
          G
 If it is never written about, 
      A
 then no one can ever read it. 
          Bm
 If it is never talked about, 
      D
 then no one can ever hear it
      G                            A                  Bm      D
 then no one can ever hear it then no one can ever hear it
       G
 Do we know the truths 
          A
 Of every broken step? 
              Bm
 Only if it's told, 

 forgotten when it?s old, 
D                    A
 undesired and cold, 
             A           Bm      D
 there is no story to be sold. 


INSTRUMENTAL:
 G     A    Bm    D  
 (we'll say)                           X4

       G
 We'll say 
            A
 we'll meet up in some hotel room, 
       Bm
 be it fancy or pay by the hour, 
           D
 and we'll comfort each other 
                 G
 like we used to in our time, 
                  A
 you?ll say it?ll be just like the old days 
        Bm  
 but it won't be the f**king old days 
        D
 no it won't be the f**king old days, 
      G
 only now with our broken parts, 
      A                          Bm
 our overused and torn up pieces. 
                                 D   
 Will it be better than before? 
                                 G
 Will it be better than before? 
                               A
 Do we thank our practice with others, 
                            Bm
 or will it be tarnished by exact thought? 
            D
 Will it be better than before? 
            G
 Will it be better than before? 
            A                Bm        D
 Will it be better than befoooooore? 


d |---0-0-----------------0-0-0-0--------0-0-----------------0-0-0-0---------|
A |---0--0----------------0-0-0-0--------0--0----------------0-0-0-0---------|
F#|---3------3p0-----0-0--0-0-0-2--------3------3p0-----0-0--0-0-0-2---------|
D |---0----------2/4---0--0-0-0-0--------0----------2/4---0--0-0-0-0---------|
G |--------0-----------0----------------------0-----------0------------------|
D |--------------------5-----------5-4--------------------5------------5-4---|

d |---0-0-----------------0-0-0-0--------0-0-----------------0-0-0-0----0----|
A |---0--0----------------0-0-0-0--------0--0----------------0-0-0-0----0----|
F#|---3------3p0-----0-0--0-0-0-2--------3------3p0-----0-0--0-0-0-2----2----|
D |---0----------2/4---0--0-0-0-0--------0----------2/4---0--0-0-0-0----0----|
G |--------0-----------0----------------------0-----------0------------------|
D |--------------------5-----------5-4--------------------5------------------|            
Submit corrections


        Shit Twins  lessons Hard to play? Try these video lessons and learn fast Shit Twins  lessons
        
↑ Back to top | Tablatures and chords for acoustic guitar and electric guitar, ukulele, drums are parodies/interpretations of the original songs. You may use it for private study, scholarship, research or language learning purposes only