» » »

Dads - Grand Edge Mi Tabs

Artists:  A B C D E F G H I J K L M N O P Q R S T U V W X Y Z # 

Grand Edge Mi Tabs

(ver. 1) Click to play this song!
Dads
 Rating:
4.3/5 (10 votes)

 Grand Edge Mi  lessons Tabs too difficult? Try these video lessons and learn fast
 
                E|--------------------------------------------------------------|
B|--------------------------------------------------------------|
G|--------2-----2--------2-----2--------2-----2--------2-----2--|
D|--------------------------------------------------------------|
A|--------------------------------------------------------------|
E|--1--1-----1-----1--1-----1-----1--1-----1-----1--1-----1-----|

E|--------------------------------------------------------------|
B|--------------------------------------------------------------|
G|--------5-----5--------5-----5--------5-----5--------5-----5--|
D|--------------------------------------------------------------|
A|--------------------------------------------------------------|
E|--5--5-----5-----5--5-----5-----5--5-----5-----5--5-----5-----|

E|------------------------------------------------------------------------|
B|------------------------------------------------------------------------|
G|----------10------10----------10------10--------9-----9--------9-----9--|
D|------------------------------------------------------------------------|
A|------------------------------------------------------------------------|
E|--10--10------10------10--10------10------8--8-----8-----8--8-----8-----|

E|--------------------------------------------------------------|
B|--------------------------------------------------------------|
G|--------7-----7--------7-----7--------7-----7--------7-----7--|
D|--------------------------------------------------------------|
A|--------------------------------------------------------------|
E|--6--6-----6-----6--6-----6-----6--6-----6-----6--6-----6-----|

Repeat those last parts until it gets to
"And tracing new found veins into each tiny digit and staring at screens"
You switch to this next part:

E|--------------------------------------------------------------|
B|--------------------------------------------------------------|
G|--------5-----5--------5-----5--------5-----5--------5-----5--|
D|--------------------------------------------------------------|
A|--------------------------------------------------------------|
E|--5--5-----5-----5--5-----5-----5--5-----5-----5--5-----5-----|

E|--------------------------------------------------------------|
B|--------------------------------------------------------------|
G|--------3-----3--------3-----3--------3-----3--------3-----3--|
D|--------------------------------------------------------------|
A|--------------------------------------------------------------|
E|--3--3-----3-----3--3-----3-----3--3-----3-----3--3-----3-----|

E|--------------------------------------------------------------------|
B|--------------------------------------------------------------------|
G|--------2-----2----------2-----2----------2-----2----------2-----2--|
D|--------------------------------------------------------------------|
A|--------------------------------------------------------------------|
E|--1--1-----1-------1--1-----1-------0--0-----0-------0--0-----0-----|

E|----------------------------------|
B|----------------------------------|
G|----------------------------------|
D|-555555555555-333333333333-5------|
A|-333333333333-111111111111-3------|
E|----------------------------------|

E|--------------------------------------------------------------|
B|--------------------------------------------------------------|
G|--------2-----2--------2-----2--------2-----2--------2-----2--|
D|--------------------------------------------------------------|
A|--------------------------------------------------------------|
E|--1--1-----1-----1--1-----1-----1--1-----1-----1--1-----1-----|

E|--------------------------------------------|
B|--------------------------------------------|
G|-----------0--0--0--2--2--2-----------------|
D|--3--3--3--------------------2--2--2--------|
A|--------------------------------------------|
E|----1--1-----1--1-----1--1-----1--1---------|            
Submit corrections


        Grand Edge Mi  lessons Hard to play? Try these video lessons and learn fast Grand Edge Mi  lessons
        
↑ Back to top | Tablatures and chords for acoustic guitar and electric guitar, ukulele, drums are parodies/interpretations of the original songs. You may use it for private study, scholarship, research or language learning purposes only