Home » D » Dads »

Dads - Bakefast At Piffanys Tabs

Artists:  A B C D E F G H I J K L M N O P Q R S T U V W X Y Z # 

Bakefast At Piffanys Tabs

(ver. 1) Click to play this song!
Dads
Intro/Verse:

"Love is bleaching..."

d |---0--x--0-0--x---------0-0-0-0----|
A |---0--x--0-0--x--12-12--7-7-0-0----|
F#|---0--x--5-5--x--0--0---0-0-7-0h70-|   x12
D |---5--x--0-0--x--0--0---0-0-0-0----|
G |---0--x--x-x--x--x--x---x-x-x-x----|
D |---5--x--5-5--x--10-10--7-7-7-7----|

Chorus:

"Love was..."

d |---7--x--5-5--x--14-12-----0-0-0--|
A |---0--x--0-0--x--0--0--12--0-0-0--|
F#|---0--x--0-0--x--0--0--0---0-0-0--|  x4
D |---0--x--0-0--x--0--0--0---0-0-0--|
G |---x--x--7-7--x--x--x--x---9-9-9--|
D |---7--x-------x--12-12-12---------|

Verse:

"Well do you..."

d |---0--x--0-0--x---------0-0-0-0----|
A |---0--x--0-0--x--12-12--7-7-0-0----|
F#|---0--x--5-5--x--0--0---0-0-7-0h70-|  x4
D |---5--x--0-0--x--0--0---0-0-0-0----|
G |---0--x--x-x--x--x--x---x-x-x-x----|
D |---5--x--5-5--x--10-10--7-7-7-7----|

Bridge:

(Scott throws some extra notes in here, but they're all within these chord shapes and this pattern sounds 
fine alone)

"The morning..."

d |---7---7-------7----7---7-------7----4---4-------4----2---2-------2-|
A |---0-0---0---0---0--0-0---0---0---0--0-0---0---0---0--0-0---0---0---|
F#|---0-------0--------0-------0--------0-------0--------0-------0-----|  x4
D |---0----------------0----------------0----------------0-------------|
G |---7----------------7----------------4----------------2-------------|
D |--------------------------------------------------------------------|

Then:

"Sleep in a bed and a home that we made..."

d |---7-7-7-7--------------------2/--|
A |---0-0-0-0--------------------0/--|
F#|---0-0-0-0--------------------0/--|  x8
D |---0-0-0-0--------------------0/--|
G |---7-7-7-7--------------------2/--|
D |------------44444444-22222222-----|

Verse:

"Now it's new meaning..."

d |---0--x--0-0--x---------0-0-0-0----|
A |---0--x--0-0--x--12-12--7-7-0-0----|
F#|---0--x--5-5--x--0--0---0-0-7-0h70-|   x4
D |---5--x--0-0--x--0--0---0-0-0-0----|
G |---0--x--x-x--x--x--x---x-x-x-x----|
D |---5--x--5-5--x--10-10--7-7-7-7----|

Chorus:

"Count the seconds..."

d |---7--x--5-5--x--14-12-----0-0-0--|
A |---0--x--0-0--x--0--0--12--0-0-0--|
F#|---0--x--0-0--x--0--0--0---0-0-0--|  x4
D |---0--x--0-0--x--0--0--0---0-0-0--|
G |---x--x--7-7--x--x--x--x---9-9-9--|
D |---7--x-------x--12-12-12---------|

Interlude:

"People we've lost..."

(It's hard to say exactly what Scott does here because he does something slightly different each time. Just
do the following and mess around on the chords from the beginning of the bridge and throw in some extra notes
 on the high d string and it should sound fine.)

d |---7-7---7-7-7-7/9\0--|
A |---0---0---0----------|
F#|---0-------0----------|  x however many necessary
D |---0-------0----------|
G |---7-------7----------|
D |---0-------0----------|

Outro:

"Gonna start doing what I wanna do..."

d |---7-7-7-7--------------------2/--|
A |---0-0-0-0--------------------0/--|
F#|---0-0-0-0--------------------0/--|  x2
D |---0-0-0-0--------------------0/--|
G |---7-7-7-7--------------------2/--|
D |------------44444444-22222222-----|

End on:

d |---2---|
A |---0---|
F#|---0---|
D |---0---|
G |---2---|
D |---0---|            
Submit corrections

↑ Back to top | Tablatures and chords for acoustic guitar and electric guitar, ukulele, drums are parodies/interpretations of the original songs. You may use it for private study, scholarship, research or language learning purposes only