» » »

D.A.D - Jonnie Tabs

Artists:  A B C D E F G H I J K L M N O P Q R S T U V W X Y Z # 

Jonnie Tabs

(ver. 1) Click to play this song!
D.A.D
 Rating:
4/5 (4 votes)
                D.A.D - Jonnie

Intro:

D - C - F

   D C F    D C F     D C F   D C F
e|----------------------------------
b|-7-9/10---7\5-5-------------------
G|----------------5---7-5-3---7-5~\3
D|----------------------------------
A|----------------------------------
E|----------------------------------


Bas:

G|-----------------------------------------
D|---------------------------------------
A|---------------------8-8-8-8-8-8-8-8---
E|-10-10-10-10-8-8-8-8-------------------10-10-10-10-8-8-8-8-1-1-1-1-1-1-1-1


Vers:


Guitar:
e|---------------
b|-7p5/10---7p5--
G|--------------7
D|---------------
A|---------------
E|---------------

Bas:

G|-----------------------------------------------------
D|-----------------------------------------------------
A|---------------------8-8-8-8-8-8-8-8-----------------
E|-10-10-10-10-8-8-8-8-------------------10-10-10-10-8-8-8-8-1-1-1-1

Chorus

Guitar:

e|-9---7---9-9-------9---7----
b|---------------------------9
G|----------------------------
D|----------------------------
A|----------------------------
E|----------------------------


Bas:

G|--------------------------------------------------------------------------------
D|--------------------------------------------------------------------------------
A|--------------------------------------------------------------------------------
E|-3-3-3-3-3-3-3-3-1-1-1-1-1-1-1-1-3-3-3-3-3-3-3-3-3-3-3-3-3-3-3-3-3-3-3-3-3-3-3-3


2. vers


Guitar:


e|-7p5/10---7p5--
b|--------------7
G|---------------
D|---------------
A|---------------
E|---------------


Bas:


G|-----------------------------------------------------
D|-----------------------------------------------------
A|---------------------8-8-8-8-8-8-8-8-----------------
E|-10-10-10-10-8-8-8-8-------------------10-10-10-10-8-8-8-8-1-1-1-1



Chorus


e|-9---7---9-9---15-12-9---9---7----
b|---------------------------------9
G|----------------------------------
D|----------------------------------
A|----------------------------------
E|----------------------------------

Bas:

G|--------------------------------------------------------------------------------
D|--------------------------------------------------------------------------------
A|--------------------------------------------------------------------------------
E|-3-3-3-3-3-3-3-3-1-1-1-1-1-1-1-1-3-3-3-3-3-3-3-3-3-3-3-3-3-3-3-3-3-3-3-3-3-3-3-3


Solo:
e|-----------------------------------------------------
b|-----------------------------------------------------
G|-----------------------------------------------------
D|-----------------------------------------------------
A|-----------------------------------------------------
E|9-9-9-7-7-5-3-3-5-9-9-9-11-12-11-13-14-14-15-16-13-13-16-17-17-17-18-18-18-19-19-19


Introen igen:


e|----------------------------------
b|-7-9/10---7\5-5-------------------
G|----------------5---7-5-3---7-5~\3
D|----------------------------------
A|----------------------------------
E|----------------------------------

Bas:

G|-----------------------------------------
D|---------------------------------------
A|---------------------8-8-8-8-8-8-8-8---
E|-10-10-10-10-8-8-8-8-------------------10-10-10-10-8-8-8-8-1-1-1-1-1-1-1-1


Chorus


Guitar:

e|-9---7---9-9---7/9-15----9---7----
b|---------------------------------9
G|----------------------------------
D|----------------------------------
A|----------------------------------
E|----------------------------------


Sillent part:

Guitar:

e|-------------------------------------------------
b|-------------------------------------------------
G|---------------x-x-10-x-x-10---------------------
D|-x-x-12-x-x-10-x-x-10-x-x-10-x-x-10-x-x-10-x-x-3-
A|-x-x-12-x-x-10-x-x-8--x-x-8--x-x-12-x-x-10-x-x-3-
E|-x-x-10-x-x-8----------------x-x-12-x-x-8--x-x-1-


Bas:


G|-----------------------------------------------------
D|-----------------------------------------------------
A|---------------------8-8-8-8-8-8-8-8-----------------
E|-10-10-10-10-8-8-8-8-------------------10-10-10-10-8-8-8-8-1-1-1-1


Chorus again whit the intro


Lyrics:
Hey Jonnie... 
Put that gun down 
You see we're not alone 
You look so square 
Standing there, with your greasy 
Grey long hair. 
I remember growing up together 
Sharing all kinds of weather 
We were to small kids 
In a dusty town... 
Your trail was trouble, mine was 
homebound: 


That's when you reach for 
Your revolver... 
That's when you reach for 
Your gun... 


Well, we heard the stories 
On the wire 
Death was your only desire 
Stayin' away made you hard to 
Blame.. 
But killing my love made me 
Stop your game: 


That's when I reach for 
My revolver... 
That's when I reach for 
My gun...   


Enjoy!
            
Submit corrections

↑ Back to top | Tablatures and chords for acoustic guitar and electric guitar, ukulele, drums are parodies/interpretations of the original songs. You may use it for private study, scholarship, research or language learning purposes only