» » »

Daan - Convertible Chaos Tabs

Artists:  A B C D E F G H I J K L M N O P Q R S T U V W X Y Z # 

Convertible Chaos Tabs

(ver. 1) Click to play this song!
Daan
 Rating:
4.4/5 (14 votes)

 Convertible Chaos lessons Tabs too difficult? Try these video lessons and learn fast
 
                [Intro riff]
e|-----------|
B|-----------|
G|-----------|
D|-----------|
A|-6h8-8-8-8-|
E|-----------|

[Verse]
    Fm    Ab    Gm
e|-----|-----|-----|
B|-----|-----|-----|
G|-----|-----|-----|
D|--3--|--6--|--5--|
A|--3--|--6--|--5--|
E|--1--|--4--|--3--|

[Chorus]
    Fm    Gm    Ab    Db    Gm    Ab
e|-----|-----|-----|-----|-----|-----|
B|-----|-----|-----|-----|-----|-----|
G|-----|-----|-----|--6--|-----|-----|
D|--3--|--5--|--6--|--6--|--5--|--6--|
A|--3--|--5--|--6--|--4--|--5--|--6--|
E|--1--|--3--|--4--|-----|--3--|--4--|            
Submit corrections


        Convertible Chaos lessons Hard to play? Try these video lessons and learn fast Convertible Chaos lessons
        
↑ Back to top | Tablatures and chords for acoustic guitar and electric guitar, ukulele, drums are parodies/interpretations of the original songs. You may use it for private study, scholarship, research or language learning purposes only