» » »

Daan - Ashtray Tabs

Artists:  A B C D E F G H I J K L M N O P Q R S T U V W X Y Z # 

Ashtray Tabs

(ver. 1) Click to play this song!
Daan
 Rating:
4.3/5 (13 votes)

 Ashtray lessons Tabs too difficult? Try these video lessons and learn fast
 
                [Main riff]
e|-----------------|------------|
B|-------8-7-5/4/5-|--------8-7-|
G|---6-------------|---6--------|
D|-8---8-----------|-8---8------|
A|-----------------|------------|
E|-----------------|------------|

[Second guitar]
e|-------------|---------|
B|-------------|---------|
G|-------------|---------|
D|-------------|---------|
A|---4-6-7-4-6-|---4-6-7-|
E|-6-----------|-6-------|

[Verse]
    Bb        Eb  
e|---6----|---6-----|
B|---6----|---8-----|
G|---7----|---8-----|
D|---8----|---8-----|
A|---8----|---6-----|
E|---6----|---------|

[Chorus]
        Bb         F          D          Eb
e|--6----1--|--5----1--|--5----2--|--6----3--|
B|--6----3--|--6----1--|--7----3--|--8----4--|
G|--7----3--|--5----2--|--7----2--|--8----3--|
D|--8-or-3--|--7-or-3--|--7-or-0--|--8-or-5--|
A|--8----1--|--8----3--|--5-------|--6----6--|
E|--6-------|--5----1--|----------|-------3--|            
Submit corrections


        Ashtray lessons Hard to play? Try these video lessons and learn fast Ashtray lessons
        
↑ Back to top | Tablatures and chords for acoustic guitar and electric guitar, ukulele, drums are parodies/interpretations of the original songs. You may use it for private study, scholarship, research or language learning purposes only