» » »

Customs - The Matador Tabs

Artists:  A B C D E F G H I J K L M N O P Q R S T U V W X Y Z # 

The Matador Tabs

(ver. 1) Click to play this song!
Customs
 Rating:
4.2/5 (5 votes)

 The Matador lessons Tabs too difficult? Try these video lessons and learn fast
 
                #############################
#Song: The Matador               #
#Artist: The Customs           #
#Tab Credits: Bladerkeuh    #
#############################


Normal  EADGBE tuning
For the right sound, try playing with distortion + delay/chorus/reverb (just try some 
different effects to get the right sound, I think it's one of these).

Intro

|------------------------------------------------------/9------|
|--------12-12-10-------------------12-12-10-------/12-----10--|
|----------------------11-9-7----------------------------------|
|--9-9------------9-9-----------9-9-----------9-9--------------|
|--------------------------------------------------------------|
|--------------------------------------------------------------|


|------------------------------------------------------/9--------|
|--------12-12-10-------------------12-12-10-------/12-----10-10-|
|----------------------11-9-7------------------------------------|
|--9-9------------9-9-----------9-9-----------9-9----------------|
|----------------------------------------------------------------|
|----------------------------------------------------------------|


Verse

2x
|--------------------------------------------------|
|-------------------------14--16--16---------------|
|-------------------------14--16--16---------------|
|--------------------------------------------------|
|--------------------------------------------------|
|-7-7-7-7-7-7-7-7-7-7-7----------------------------|

|--------------------------------------------------|
|-------------------------14--11--11---------------|
|-------------------------14--11--11---------------|
|--------------------------------------------------|
|--------------------------------------------------|
|-7-7-7-7-7-7-7-7-7-7-7----------------------------|

|------------------------------------------------------/9------|
|--------12-12-10-------------------12-12-10-------/12-----10--|
|----------------------11-9-7----------------------------------|
|--9-9------------9-9-----------9-9-----------9-9--------------|
|--------------------------------------------------------------|
|--------------------------------------------------------------|


|------------------------------------------------------/9--------|
|--------12-12-10-------------------12-12-10-------/12-----10-10-|
|----------------------11-9-7------------------------------------|
|--9-9------------9-9-----------9-9-----------9-9----------------|
|----------------------------------------------------------------|
|----------------------------------------------------------------|


2x
|--------------------------------------------------|
|-------------------------14--16--16---------------|
|-------------------------14--16--16---------------|
|--------------------------------------------------|
|--------------------------------------------------|
|-7-7-7-7-7-7-7-7-7-7-7----------------------------|

|--------------------------------------------------|
|-------------------------14--11--11---------------|
|-------------------------14--11--11---------------|
|--------------------------------------------------|
|--------------------------------------------------|
|-7-7-7-7-7-7-7-7-7-7-7----------------------------|


Chorus

Alternate pick every note 8 times
|----------------------------------------------------------------|
|-15(x8)---12(x8)---17(...)---15---15---12---19---12-------------|
|----------------------------------------------------------------|
|----------------------------------------------------------------|
|----------------------------------------------------------------|
|----------------------------------------------------------------|

|---------------------/17-------------------------------------|
|-15---12---17---15---------17---19---15----------------------|
|-------------------------------------------------------------|
|-------------------------------------------------------------|
|-------------------------------------------------------------|
|-------------------------------------------------------------|


Bridge

|------------------------------------------------------/9------|
|--------12-12-10-------------------12-12-10-------/12-----10--|
|----------------------11-9-7----------------------------------|
|--9-9------------9-9-----------9-9-----------9-9--------------|
|--------------------------------------------------------------|
|--------------------------------------------------------------|


|------------------------------------------------------/9--------|
|--------12-12-10-------------------12-12-10-------/12-----10-10-|
|----------------------11-9-7------------------------------------|
|--9-9------------9-9-----------9-9-----------9-9----------------|
|----------------------------------------------------------------|
|----------------------------------------------------------------|

Verse

In this verse, there is no guitar until he sings "go easy on
the talking". Then the guitar just strums a powerchord, and
hits the low E string while the chord keeps ringing.
It's something like this:

|-------------------------------------------------------------|
|-------------------------------------------------------------|
|-------------------------------------------------------------|
|--9~----------9~---x-x-x-x-9~---------9~---------------------|
|--9~----------9~---x-x-x-x-9~---------9~---------------------|
|--7~---7-7-7--7~---7-7-7-7-7~---7-7-7-7~---------------------|


Chorus

Alternate pick every note 8 times
|-------------------------------------------------------------|
|-15(x8)---12(x8)---17(...)---15---15---12---19---12----------|
|-------------------------------------------------------------|
|-------------------------------------------------------------|
|-------------------------------------------------------------|
|-------------------------------------------------------------|

|---------------------/17-------------------------------------|
|-15---12---17---15---------17---19---15----------------------|
|-------------------------------------------------------------|
|-------------------------------------------------------------|
|-------------------------------------------------------------|
|-------------------------------------------------------------|


Bridge

|------------------------------------------------------/9------|
|--------12-12-10-------------------12-12-10-------/12-----10--|
|----------------------11-9-7----------------------------------|
|--9-9------------9-9-----------9-9-----------9-9--------------|
|--------------------------------------------------------------|
|--------------------------------------------------------------|


|------------------------------------------------------/9--------|
|--------12-12-10-------------------12-12-10-------/12-----10-10-|
|----------------------11-9-7------------------------------------|
|--9-9------------9-9-----------9-9-----------9-9----------------|
|----------------------------------------------------------------|
|----------------------------------------------------------------|


Mini Solo

Alternate pick every note 8 times like in the chorus part, except
the last two notes, they only must be picked 4 times each.
|------------------------------------------17----------------------|
|--/12(x8)---15(x8)---19(...)---12---/12---15-------17(x4)---19(x4)|
|------------------------------------------------------------------|
|------------------------------------------------------------------|
|------------------------------------------------------------------|
|------------------------------------------------------------------|


Chorus

Alternate pick every note 8 times
|-------------------------------------------------------------|
|-15(x8)---12(x8)---17(...)---15---15---12---19---12----------|
|-------------------------------------------------------------|
|-------------------------------------------------------------|
|-------------------------------------------------------------|
|-------------------------------------------------------------|

|---------------------/17-------------------------------------|
|-15---12---17---15---------17---19---15----------------------|
|-------------------------------------------------------------|
|-------------------------------------------------------------|
|-------------------------------------------------------------|
|-------------------------------------------------------------|


Ending

|-------------------------------------------------------------|
|-16-16-16-16-16-16--14--16-----------------------------------|
|-16-16-16-16-16-16--14--16\----------------------------------|
|-16-16-16-16-16-16--14--16-----------------------------------|
|-------------------------------------------------------------|
|-------------------------------------------------------------|


That's it! I hope You enjoy playing the song!
For questions of comments, mail me at:
            
Submit corrections


        The Matador lessons Hard to play? Try these video lessons and learn fast The Matador lessons
        
↑ Back to top | Tablatures and chords for acoustic guitar and electric guitar, ukulele, drums are parodies/interpretations of the original songs. You may use it for private study, scholarship, research or language learning purposes only