» » »

Current-93 - Bind Your Tortoise Mouth Tabs

Artists:  A B C D E F G H I J K L M N O P Q R S T U V W X Y Z # 

Bind Your Tortoise Mouth Tabs

(ver. 2) Click to play this song!
Current-93
 Rating:
2.2/5 (30 votes)

 Bind Your Tortoise Mouth lessons Tabs too difficult? Try these video lessons and learn fast
 
                Tuning: FADGBE

The main theme of the song is as follows:
e|8---8\6-6---6\5-5---5\3-3---1---0---0/1-1---1/3-3---3/5-5---6---|
B|----------------------------------------------------------------|
G|----------------------------------------------------------------|
D|------------------------------------0-------0-------0-----------|
A|----------------------------------------------------------------|
F|0---0-0-0---0-0-0---0-0-0---0---0-------0-------0-------0---0---|

It is occasionally replaced by this variation:
e|8-------6-------5-------3---1---0---0/1-1---1/3-3---3/5-5---6---|
B|----10------8-------6-------------------------------------------|
G|----------------------------------------------------------------|
D|------------------------------------0-------0-------0-----------|
A|----------------------------------------------------------------|
F|0---0-0-0---0-0-0---0-0-0---0---0-------0-------0-------0---0---|
            
Submit corrections


        Bind Your Tortoise Mouth lessons Hard to play? Try these video lessons and learn fast Bind Your Tortoise Mouth lessons
        
↑ Back to top | Tablatures and chords for acoustic guitar and electric guitar, ukulele, drums are parodies/interpretations of the original songs. You may use it for private study, scholarship, research or language learning purposes only