» » »

Culture Club - Karma Chameleon Tabs

Artists:  A B C D E F G H I J K L M N O P Q R S T U V W X Y Z # 

Karma Chameleon Tabs

(ver. 2) Click to play this song!
Culture Club
 Rating:
4.3/5 (18 votes)

 Karma Chameleon lessons Tabs too difficult? Try these video lessons and learn fast
 
                Intro:

e|-----------------------------|
B|-----------------------------|
G|-----------------------------|  x2
D|---3-3-3--1-0-1-0------------|
A|--------------------------1--|
E|-------------------3/1-------|

e|-----------------------------------|
B|-----------------------------------|
G|------------------------------3----|
D|---5-5-3------5-5-3-----5-5-3------|
A|-----------1---------1-------------|
E|-----------------------------------|

Verse:
         Desert...
e|--------------------------------------------|
B|--------------------------------------------|
G|-----------------------------------------3--|
D|---5-5-3-----5-5-3-----------------5-5-3----|
A|---------1-------------5-5--3--1------------|
E|-------------------1------------------------|

e|----------------------------------------------------|
B|----------------------------------------------------|
G|-----------------------------------------3----------|
D|---5-5-3-----5-5-3-----------------5-5-3-----5-5-3--|
A|---------1-------------5-5--3--1--------------------|
E|-------------------1--------------------------------|

Bridge:
 I'm a man...     
     Eb                           F
e|o--3-3-x--3-3-x--3-3-x--3-3-x-|-5-5-x--5-5-x--5-5-x--5-5-x-|
B|o--4-4-x--4-4-x--4-4-x--4-4-x-|-6-6-x--6-6-x--6-6-x--6-6-x-|
G|o--3-3-x--3-3-x--3-3-x--3-3-x-|-5-5-x--5-5-x--5-5-x--5-5-x-|  x3
D|x-----------------------------|----------------------------|
A|x-----------------------------|----------------------------|
E|x-----------------------------|----------------------------|
     Cm                               Gm       F
e|o--3-3-x--3-3-x--3-3-x--3-3-x-|-o--3--|--o--1--|
B|o--4-4-x--4-4-x--4-4-x--4-4-x-|-o--3--|--o--1--|
G|o--5-5-x--5-5-x--5-5-x--5-5-x-|-o--3--|--o--2--|
D|o--5-5-x--5-5-x--5-5-x--5-5-x-|-o--5--|--o--3--|
A|x-----------------------------|-o--5--|--o--3--|
E|x-----------------------------|-x-----|--x-----|

Chorus: Bb-F-Gm-Cm-Bb-F (x2)

Outro: Eb-Dm-Cm-Gm
       Eb-Dm-CmGm-F

Solo: play verse part
      tocar la parte del verso

This is the sequences to the song
esta es la secuencia de la cancion

Intro

-Verse 1
-Bridge
-Chorus

-Verse 2
-Bridge
-Chorus

-Outro

-Bridge
-Chorus            
Submit corrections


        Karma Chameleon lessons Hard to play? Try these video lessons and learn fast Karma Chameleon lessons
        
↑ Back to top | Tablatures and chords for acoustic guitar and electric guitar, ukulele, drums are parodies/interpretations of the original songs. You may use it for private study, scholarship, research or language learning purposes only