Home » C » Cryoshell »

Cryoshell - Creeping In My Soul Tabs

Artists:  A B C D E F G H I J K L M N O P Q R S T U V W X Y Z # 

Creeping In My Soul Tabs
Version #2
Cryoshell


Copy URL
This song has been around since 2007, and this is a tab for the 2010 version which i
enjoy more! I learned the guitar parts recently, and i have to say, the existing CIMS tab
did not help at all, and it seems completely wrong, specifically the palm muted part, 
and it does not have all of the song in it. So i hope this tab helps anyone trying to learn


Verse1
e|----------------------------------------------------------|
b |---------------------------------------------------------|
g |---------------------------------------------------------|
d |---------------------------------------------------------|
a |-------------------2----------5-----------2-----------5--|
d |-------------------2----------5-----------2-----------5--|

Chorus
e|-----------------------------------------------------------------------------|
b |----------------------------------------------------------------------------|
g |----------------------------------------------------------------------------|
d |----------------------------------------------------------------------------|
a |--------2—(8x)------5-(8x)-------0-(8x)------7-(8x)-------------------(2x)--|
d |--------2-----------5------------0-----------7------------------------------|

Verse2
e|-----------------------------------------------------------------------------------------------|
b |---------------------------------------------------(palm muted)-------------------------------|
g |----------------------------------------------------------------------------------------------|
d |----------9-9-10-10-7-7-9-9-5-5-7-7-4-4----(3x)------------9-9-10-10-7-7-9-9-10-10-9-9-10-10--|
a |----7-7------------------------------------------------7-7------------------------------------|
d |----------------------------------------------------------------------------------------------|

e|-------------------------------------------------------------------------------|
b |------------------------------------------------------------------------------|
g |------------------------------------------------------------------------------|
d |----------------------------------------------------------------(palm muted)--|
a |---2---2-2---(4x)----///-10-------2---2-2---(4x)-------10-10-10-10-10---------|
d |---2---2-2-----------///-10-------2---2-2--------------10-10-10-10-10---------|

e|--------------------------------------------------------------------------|
b |-------------------------------------------------------------------------|
g |-------------------------------------------------------------------------|
d |-------------------------------------------------------------------------|
a |---2------5---------2-2--2-2--2-2--2-3--2-2--3---(2x)---------2-------5--|
d |---2------5---------2-2--2-2--2-2--2-3--2-2--3----------------2-------5--|

Chorus





Bridge
e|-----------------------------------------------|
b |----------------------------------------------|
g |----------------------------------------------|
d |----------------------------------------------|
a |----(2)--(2)--(2)--------(listen for rhythm)--|
d |----(2)--(2)--(2)-----------------------------|

Chorus (without first chords)

Chorus
            
Submit corrections

↑ Back to top | Tablatures and chords for acoustic guitar and electric guitar, ukulele, drums are parodies/interpretations of the original songs. You may use it for private study, scholarship, research or language learning purposes only