» » »

Crowded House - Woodface All Tabs

Artists:  A B C D E F G H I J K L M N O P Q R S T U V W X Y Z # 

Woodface All Tabs

(ver. 2) Click to play this song!
Crowded House
 Rating:
4/5 (4 votes)

 Woodface All lessons Tabs too difficult? Try these video lessons and learn fast
 
                X-Lines: 85
Status: RO

She Goes On
(N. Finn)

ACOUSTIC GUITAR INTRO:
-------|------------------|-------|--------------||
-------|----------------0-|-------|--------------||
-1-2-2-|-1-2-2--4--2------|-1-2-2-|-1-2-2--4--2--||
-2-2-2-|-2-2-2-------4----|-2-2-2-|-2-2-2--------||
-------|------------------|-------|--------------||
-------|------------------|-------|--------------||

INTRO CHORDS (option to above:)  E   A   E   A   B

E
Pretty soon you'll be able to remember her
A
Lying in the garden singing
C#m                       Ab9/C#*
Right where she'll always be
            B/A    A
The door is always open
E
This is the place that I loved her
    A
And these are the friends that she had
C#m                   Ab9/C#
Long may the mountain ring
       B/A          A
To the sound of her laughter
             B
And she goes on and on


CHORUS
       E         A      B
In her soft wind I will whisper
       E        A      B
In her warm sun I will glisten
        E       A     B
Till we see her once again
     A/C#          B
In a world without end

We owe it all to Frank Sinatra
The song was playing as she walked into the room
After the long weekend
They were a lifetime together
Appearing in the eyes of children
In the clear blue mountain view
Colouring the sky
And painting ladders to heaven
And she goes on and on

CHORUS

CHORDS FOR INSTRUMENTAL BREAK

Am    B    E     C
C     B    Am    B
E     C    C     D     E   A   B 

In her soft wind I will whisper
In her warm sun I will glisten
And I always will remember
In a world without end

E   A   E   A   B  (X 2)



* UNUSUAL CHORDS
Ab9/C#  x42320
A/C#    X42220


{new_song}
{title:How Will You Go}
{subtitle:N. Finn/T. Finn}

INTRO:
---------------------------------------|--------------------|
-------3---------1---------0--1>0------|--------3------5--3-|
---0--------0---------0-----------2--0-|---0---------0------|
-3---3----3---3-----3---0--------------|-3---3-----3--------|
---------------------------------------|--------------------|
---------------------------------------|--------------------|

----------------------||
--------0--1>0--------||
---0------------2--0--||
-3---3----------------||
----------------------||
----------------------||

  G       Cadd2*  Dsus4*
Escape is on your mind again
Esus4*      A*
Escape to a far away land
   G        Cadd2       Dsus4 
At times it seems there is no end
   Esus4               A
To long hard nights of drinking


CHORUS
D            A
How will you go
D            A
How will you go
Em                             G
Drive through the wind and the rain
D        A
Cover it up
D        A
Cover it up
Em                         Dsus4      D   Dsus4   D
I'll find you a shelter to sleep in

I fell over on the couch again
But you know not all sleep is wasted
Your dreams are alcohol inspired
You can't find a better way to face it

CHORUS

        A
And you know I'll be fine
           D               G
Just don't ask me how it's going
      A 
Gimme time, gimme time
      D           G
Cos I want you to see
          A
Round the world round the world
     D          G           A
Is a tangled up necklace of pearls

CHORDS DURING INSTRUMENTAL BREAK

G5/D*  Gsus4/D*  G/D*  Gsus4  (x 4)

GUITAR SOLO:
-------|---------------------|-----------------|-----------------||
-8>>>3-|-8>>>3---1-0---------|-5>6-5-3----1--3-|-8>>>3---1-0-----||
-------|-------------2-0---0-|-----------------|-------------2-0-||
-------|-----------------3---|-----------------|-----------------||
-------|---------------------|-----------------|-----------------||
-------|---------------------|-----------------|-----------------||


CHORUS X 2

* UNUSUAL CHORDS
Cadd2    x32022
Dsus4    xx0233
Esus4    020455
A        x07655
G5/D     xx0033
Gsus4/D  xx0013
G/D      xx0003


{new_song}
{title:Italian Plastic}
{subtitle:P. Hester}

INTRO:  B*   Bsus4*

B                            Bsus4  
I bring you plates from Rome
B                           Bsus4
You say they look fantastic
B                     Bsus4
I say we're having fun
E                                     B  Bsus4
Nothing like that Italian plastic


I bring you rocks and flowers
You say they look pathetic
You pick me up at night
I don't feel pathetic


CHORUS
D             G
When you wake up with me
D            A
I'll be your glass of water
D              G
When you stick up for me
D              G     A         B   Bsus4   A    E
Then you're my Bella Bambina

GUITAR SOLO (end of instrumental break; over:  B - Bsus4 - A - E)
--------------------|-------------------------------|-------------------||
--------------------|-------------------------------|-------------------||
-8>9--10--11--------|-------------------------------|-11--11------------||
--------------9---9-|-9>7---------------------------|-------------------||
--------------------|-------------------------------|-------------------||
--------------------|-------------------------------|-------------------||
                      ^^^ (hammer/pull off 16 times)       ^^ slide down
                      
I say we're on a trip
Looks like we're on vacation
I say we're having fun
In our little constellation

CHORUS

D                 A
Then I'll be your Bella Bambino, your man on the moon,
I'll be your little boy running with that egg on his spoon,
I'll be your soul survivor, your worst wicked friend,
I'll be your piggy in the middle, stick with you till the end

CHORUS

RIDE-0UT CHORDS:  Dmaj7*   D



* UNUSUAL CHORDS
B     799877
Bsus4 799977
Dmaj7 xx0222


{new_song}
{title:Chocolate Cake}
{subtitle:N. Finn/T. Finn}

INTRO GUITAR PART:
---------------------||
-5--5-------5--5--4--||
-5--5-------5--5--5--||  [repeated throughout song
---------------------||  with slight variations]
---------------------||
---------------------||

INTRO:    Am     G   (x 4)

    Am       G       Am              G                 Am      G
Not everyone in New York would pay to see Andrew Lloyd Webber
        Am            G          Am          G             Am     G
May his trousers fall down as he bows to the queen and the crown
        F
I don't know what tune that the orchestra played
            D                G           E
But it went by me sickly and sentimental

Am                                    D/F#*
Can I have another piece of chocolate cake
                   G
Tammy Baker's got a lot on her plate
Am                              D/F#
Can I buy another cheap Picasso fake
                    G
Andy Warhol must be laughing in his grave

Am   G  (x 4)

The band of the night take you to ethereal heights over dinner
You wander the streets never reaching the heights that you seek
And the sugar that dripped from the violins bow
Made the children go crazy, put a hole in the tooth of a hag


Can I have another piece of chocolate cake
Tammy Baker must be losing her faith
Can I buy another cheap Picasso fake
Andy Warhol must be laughing in his grave

        Am    
And the dogs are on the road
          D
We're all tempting fate
Am
Cars are shooting by
        D
With no number plates
    E
And here comes Mrs. Hairy Legs

(Chords under harmonica solo)  Am   G

I saw Elvis Presley walk out of a Seven Eleven
And a woman gave birth to a baby and then bowled 257
The excess of fat on your American bones
Will cushion the impact as you sink like a stone

Can I have another piece of chocolate cake
Tammy Baker, Tammy Baker ...
Can I buy another cheap Picasso fake
Cheap Picasso, cheap Picasso fake
Can I have another piece of chocolate cake
Kathy Straker, boy could she lose some weight
Can I buy another slice of real estate
                                       Am   G  D/F#  F
Liberace must be laughing in his grave

E           A      E        A            E   A  (repeat to fade)
Can I have another piece of chocolate cake

RIDE-OUT GUITAR RIFF:

-8--7----8-8--7--|-8--7----5-5--3---3-||
-----------------|--------------------||
-9--7----9-9--7--|-9--7----5-5--4---4-||  Riff repeats with variations
-----------------|--------------------||           to fade ...
-----------------|--------------------||
-----------------|--------------------||


* UNUSUAL CHORDS

D/F#   200232


{new_song}
{title:It's Only Natural}
{subtitle:N. Finn/T. Finn}

{comment:To match the recording, capo on first fret}

MAIN GUITAR RIFF:
------------------------|-----------------------||
-------2--0-------------|-------2--0-----0>2>0--||
-------------2-1>2>1----|-------------2---------||
---0-2---------------2--|---0-2-----------------||
-2----------------------|-2---------------------||
------------------------|-----------------------||

INTRO:  E  A  E  A  (x 4)

E        A     E          A
Ice will melt, water will boil
E       A     E              A
You and I can shake off this mortal coil
     D           A
It's bigger than us
    D             A               E   A   E   A
You don't have to worry about it
E         A  E              A
Ready or not here comes the drop
E        A              E              A
You feel lucky when you know where you are
     D           A 
It's gonna come true
D            A
Here in your arms I remember


CHORUS
          C#m
It's only natural that I should want to
   G#m
Be there with you
          C#m
It's only natural that you should
                  G#m    
feel the same way too

It's easy when you don't try
Going on first impressions
Man in a cage has made his confession
You've seen me at my worst
And it won't be the last time I'm down there
I want you to know I feel completely at ease
Read me like a book
That's fallen down between your knees
Please let me have my way with you

          C#m
It's only natural that I should want to
   G#m
Be there with you
          C#m
It's only natural that you should
                  G#m   B
feel the same way too
           E                      G#
It's circumstantial, it's nothing written in the sky
    A
And we don't even have to try ...

GUITAR SOLO (over an E chord):
----------------------------------|----------------------------||
-7>5-5--5-5-5---3>5-5>3--3>2-3>5--|-3>5--5>0--5-5-5-5>0-3-3-5--||
-6>4-4--4-4-4-------4-------------|-4----4----4-4-4-4---4-4-4--||
----------------------------------|----------------------------||
----------------------------------|----------------------------||
----------------------------------|----------------------------||

E            A    E            A
Shaking like mud, buildings of glass
E             A              E               A
Sink into the bay they'll be under the rocks again
    D             A     D           A
You don't have to say I know you're afraid

CHORUS

           E       G#                     A
It's circumstantial, it's something I was born to
          E      G#                   A
It's only natural, can't help it if I want to



{new_song}
{title:I'm Still Here}
{subtitle:Crowded House}

Am  G     Am
I'm still here
Am      G   Am
I won't go away
G   C     G
I'm still here
     Am       G       Am
I've come to rain on your parade
Am  G     Am
I'm still here
Am   G       Am
It's getting late
      G         C   
Well, I'm still hangin' round
G 
Keepin' my fingers crossed
Am      G         Am
I still wanna get laid


{new_song}
{title:There Goes God}
{subtitle:N. Finn/T. Finn}

INTRO GUITAR:
---0----------------|---0-----------------|---0----------------|
-0---0---0--0>1>0---|-0---0---0--0>1>0----|-0---0---0--0>1>0---|
------------------2-|------------------2--|------------------2-|
--------------------|---------------------|--------------------|
--------------------|---------------------|--------------------|
--------------------|---------------------|--------------------|

---0---------|---0-----------|-------------||
-------------|---------------|----------8--||
-1---1---1-1-|-0---0---0--0--|-------6-----||
-------------|---------------|----5--------||
-------------|---------------|-0-----------||
-------------|---------------|-------------||

          G       D/F#*   Em
What'll I tell him
                            B7*
When he comes to me for absolution
             G       D/F#   Em
Wouldn't you know it
                          B7
Hope I don't make a bad decision
    D             C
Cos I'd like to believe
           D
There is a god
           C                 D
Why sinful angels suffer for love
              Am
I'd like to believe

In the terrible truth in the beautiful lie

        G        D/F#  Em 
Like to know you
                               B7
But in this town I can't get arrested
       G       D/F#   Em
If you know me
                               B7
Why don't you tell me what I'm thinking

D              C
Hey don't look now
           D
There goes God
            C                     D
In his sexy pants and his sausage dog
             Am
And he can't stand Beelzebub
                                        
Cos he looks so good in black, in black

(verse chords for harmonica solo)

CHORUS

RIDE-OUT CHORDS:  D   C



* UNUSUAL CHORDS

D/F#  200232
B7    x21200
            
Submit corrections


        Woodface All lessons Hard to play? Try these video lessons and learn fast Woodface All lessons
        
↑ Back to top | Tablatures and chords for acoustic guitar and electric guitar, ukulele, drums are parodies/interpretations of the original songs. You may use it for private study, scholarship, research or language learning purposes only