Home » C » Crowded House »

Crowded House - Sister Madly Chords

Artists:  A B C D E F G H I J K L M N O P Q R S T U V W X Y Z # 

Sister Madly Chords

(ver. 2) Click to play this song!
Crowded House
INTRO:  Em  A  Em  C

Em                         A
now you're heading down to get someone
Em                     C
should've done what he had to do years ago
Em              A
the position is coming through
Em                         C
all the people that you're standing on
Em                         A
all the people that you're standing on
Em                         C
now you're heading down to be someone
Em                  A
someone that you've seen in a magazine
Em                  C
your premonition is coming true
Em             A
oh baby you're not so green
Em             C
no baby you're not so green
Em             C
no baby you're not so

       Am    D/F#          G     D/F#
sister madly waking up the dead
            Am        D/F#           G      D/F#
you're systematically stepping on my head
       Am    D/F#          G      D/F#
sister madly waking up the dead
            Am        B7             Em
you're systematically stepping on my head


Em                         A
now you're heading down to find something
Em                 C
something that you buried in your back yard
Em              A
the position is coming through
Em                            C
from all the dirt that you're digging up
Em                            A
from all the dirt that you're digging up
Em                         C
now you're heading down to be somewhere
Em             A
somewhere you imagined in your wildest dream
Em               C
your position is coming through
Em                              A
from all the people that you're standing on
Em                              C
from all the people that you're standing on
Em                    C
now you better take a firm hand

       Am    D/F#          G     D/F#
sister madly waking up the dead
            Am        D/F#           G      D/F#
you're systematically stepping on my head
       Am    D/F#          G      D/F#
sister madly waking up the dead
            Am        B7             Em
you're systematically stepping on my head


SOLO:
|--0-|---0-|----|-----|---------------|----------------------|
|-/5-|--/5-|-7^8|-7^8-|-----12-12-----|----------------------|
|-/4-|--/4-|-8^9|-8^9-|8/---12-12--11^|9-11-9----------------|
|----|-----|-9--|-9---|--/12----------|------9-5-7-5---------|
|----|-----|----|-----|---------------|--------------7-7-9---|
|----|-----|----|-----|---------------|----------------------|
^^^^^^^^^^^^^^^^^^^^^^^^

  1 + 2  3  4 +
|----------------|-------------------|------------|----------|------|
|----------------|-------------12----|-14^---15^--|17^--18^--|19^---|
|-----11-11-9-11-|12p11p9-11-9----(9)|------------|----------|------|
|---9------------|-------------------|-----14---14|---16---17|------|
|10--------------|-------------------|------------|----------|------|
|----------------|-------------------|------------|----------|------|
      ^  ^

Fills:
[1]                  [2]         [3]   [4]
|-14-|-12-12-|-12-| |---------| |---| |-/12--14\-|
|-12-|-12-13-|-12-| |---------| |-8-| |-/12--12\-|
|----|-------|----| |---------| |-9-| |----------|
|----|-------|----| |---------| |---| |----------|
|----|-------|----| |---------| |---| |----------|
|----|-------|----| |-0/7-7\0-| |---| |----------|

(N.C.)
now you're heading down to get someone
some[1]one that you should've had years ago
(N.C.)
the position is coming through
all the people that you're standing on [2]
Em                         A
all the people that you're standing on [3]
Em                         C
all the people that you're standing on [4]
Em                C
uh  hard to get a hand on


       Am    D/F#          G     D/F#
sister madly waking up the dead
            Am        D/F#           G      D/F#
you're systematically stepping on my head
       Am    D/F#          G      D/F#
sister madly waking up the dead
            Am        B7             Em
you're systematically stepping on my head

Outtro riff:
|-----------------------|-----10--|
|---0------0------------|-----8---|
|------2/4---2-0--------|-----8---|
|-----------------2-0-2-|-----9---|
|-----------------------|---------|
|---------------------0-|---------|            
Submit corrections

↑ Back to top | Tablatures and chords for acoustic guitar and electric guitar, ukulele, drums are parodies/interpretations of the original songs. You may use it for private study, scholarship, research or language learning purposes only