» » »

Crossing The Bar - I Know What Its Like To Be Scared Tabs

Artists:  A B C D E F G H I J K L M N O P Q R S T U V W X Y Z # 

I Know What Its Like To Be Scared Tabs

(ver. 1) Click to play this song!
Crossing The Bar
 Rating:
2.8/5 (28 votes)

 I Know What Its Like To Be Scared  lessons Tabs too difficult? Try these video lessons and learn fast
 
                Verse
E|-------------------------------|
B|-------------------------------|
G|-------------------------------|
D|----------------11--11--11--9--|
G|--9h12--9h12p9--0---0---0---0--|
D|--0-----0----------------------| x 3

E|--0-----|
B|--0-----|
G|--9-----|
D|--11----|
A|--------|
D|--------| (This whole verse is x3)


Chorus
E|-----0------0------|
B|-----10-----0------|
G|-----11-----9------|
D|-----0------11-----|
A|------------0------|
D|-------------------| x2

Verse 2
Chorus

Bridge
E|-----0------9------0------0------|
B|-----10-----10-----10-----0------|
G|-----11-----11-----11-----9------|
D|-----0------0------0------11-----|
A|--------------------------0------|
D|---------------------------------| x2


Bridge solo (repeat once)
E|-----------------------------------------------------------|
B|-----------------------------------------------------------|
G|--11--11--11--11--11--11--11--11\9--9--9--9--9--9--9--9----|
D|-----------------------------------------------------------|
A|--9---9---9---9---9---9---9----9\7--7--7--7--7--7--7--7----|
D|--0---0---0------------------------------------------------|


E|-----------------------------------------------------------------------|
B|-----------------------------------------------------------------------|
G|--------------------11--9---------------------------------11--9--------|
D|-9--11--11--11--11--0---0--9--11----9--11--11--11--9--11--0---0--9--11-|
A|-0------0---0---0----------0--------0------0---0---0-------------0-----|
D|-----------------------------------------------------------------------|            
Submit corrections


        I Know What Its Like To Be Scared  lessons Hard to play? Try these video lessons and learn fast I Know What Its Like To Be Scared  lessons
        
↑ Back to top | Tablatures and chords for acoustic guitar and electric guitar, ukulele, drums are parodies/interpretations of the original songs. You may use it for private study, scholarship, research or language learning purposes only