» » »

Crossfaith - Freedom Tabs

Artists:  A B C D E F G H I J K L M N O P Q R S T U V W X Y Z # 

Freedom Tabs

(ver. 1) Click to play this song!
Crossfaith
 Rating:
4.3/5 (6 votes)

 Freedom lessons Tabs too difficult? Try these video lessons and learn fast
 
                [Intro]
D|--------------------------------------------------------------|
A|--------------------------------------------------------------|
F|--------------------------------------------------------------|
C|--------------------------------------------------------------|
G|--------------------------------------------------------------|
C|--2--0h2-2-2-2-0h3-0h2-2-2-2-0h3-0h2-2-2-2-0h3-0h2-2-2-2------|
PM  .  . . . . . . . . . . . . . . . . . . . . . . . . . .

D|--------------------------------------------------------------|
A|--------------------------------------------------------------|
F|--------------------------------------------------------------|
C|--------------------------------------------------------------|
G|--------------------------------------------------------------|
C|--0h2-2-2-2-0h3-0h2-2-2-2-0h3-0h2-2-2-2-0h3-0h2-2-2-2---------|
PM  . . . . . . . . . . . . . . . . . . . . . . . . . .

[Verse]
D|--------------------------------------------------------------|
A|--------------------------------------------------------------|
F|--------------------------------------------------------------|
C|--0h2-2-2-2-0h3-0h2-2-2-2-0h3-0h2-2-2-2-0h3-5-5-5-3-3-3-------|
G|--0h2-2-2-2-0h3-0h2-2-2-2-0h3-0h2-2-2-2-0h3-5-5-5-3-3-3-------|
C|--0h2-2-2-2-0h3-0h2-2-2-2-0h3-0h2-2-2-2-0h3-5-5-5-3-3-3-------|

D|--------------------------------------------------------------|
A|--------------------------------------------------------------|
F|--------------------------------------------------------------|
C|--0h2-2-2-2-0h3-0h2-2-2-2-0h3-0h2-2-2-2-0h3-------------------|
G|--0h2-2-2-2-0h3-0h2-2-2-2-0h3-0h2-2-2-2-0h3-------------------|
C|--0h2-2-2-2-0h3-0h2-2-2-2-0h3-0h2-2-2-2-0h3-------------------|

D|--------------------------------------------------------------|
A|--------------------------------------------------------------|
F|--------------------------------------------------------------|
C|--0h2-2-2-2-0h3-0h2-2-2-2-0h3-0h2-2-2-2-0h3-5-5-5-3-3-3-------|
G|--0h2-2-2-2-0h3-0h2-2-2-2-0h3-0h2-2-2-2-0h3-5-5-5-3-3-3-------|
C|--0h2-2-2-2-0h3-0h2-2-2-2-0h3-0h2-2-2-2-0h3-5-5-5-3-3-3-------|

D|--------------------------------------------------------------|
A|--------------------------------------------------------------|
F|--------------------------------------------------------------|
C|--0h2-2-2-2-0h3-0h2-2-2-2-0h3-0h2-2-2-2-0h3-------------------|
G|--0h2-2-2-2-0h3-0h2-2-2-2-0h3-0h2-2-2-2-0h3-------------------|
C|--0h2-2-2-2-0h3-0h2-2-2-2-0h3-0h2-2-2-2-0h3-------------------|

[Chorus]
D|--------------------------------------------------------------|
A|--------------------------------------------------------------|
F|--------------------------------------------------------------|
C|--5-5-5-5-5-5--7-7-7-7-7-7--2-2-2-2-2-2-2-2-2-2-2-2-----------|
G|--5-5-5-5-5-5--7-7-7-7-7-7--2-2-2-2-2-2-2-2-2-2-2-2-----------|
C|--5-5-5-5-5-5--7-7-7-7-7-7--2-2-2-2-2-2-2-2-2-2-2-2-----------|

D|--------------------------------------------------------------|
A|----------------------------------------5-5-5-5-5-5-----------|
F|----------------------------------------4-4-4-4-4-4-----------|
C|--5-5-5-5-5-5--7-7-7-7-7-7--2-2-2-2-2-2-2-2-2-2-2-2-----------|
G|--5-5-5-5-5-5--7-7-7-7-7-7--2-2-2-2-2-2-2-2-2-2-2-2-----------|
C|--5-5-5-5-5-5--7-7-7-7-7-7--2-2-2-2-2-2-2-2-2-2-2-2-----------|

[Verse]
D|--------------------------------------------------------------|
A|--------------------------------------------------------------|
F|--------------------------------------------------------------|
C|--2--0-3-0-2--0-3-0-2--0-3-0-2--0-3-0-2--0-3-0-2--0-3-0-2-----|
G|--------------------------------------------------------------|
C|--------------------------------------------------------------|

D|--------------------------------------------------------------|
A|--------------------------------------------------------------|
F|--------------------------------------------------------------|
C|--0-3-0-2--0-3-0-2--0-3-0-2--0-3-0-2--0-3-0-2--0-3-0----------|
G|--------------------------------------------------------------|
C|--------------------------------------------------------------|

(Pause)

D|--------------------------------------------------------------|
A|--------------------------------------------------------------|
F|--------------------------------------------------------------|
C|--2--0h3-0h2--0h3-0h2--0h3-0h2-2-2-2-2-2-2--------------------|
G|--2--0h3-0h2--0h3-0h2--0h3-0h2-2-2-2-2-2-2--------------------|
C|--2--0h3-0h2--0h3-0h2--0h3-0h2-2-2-2-2-2-2--------------------|

D|--------------------------------------------------------------|
A|--------------------------------------------------------------|
F|--------------------------------------------------------------|
C|--2--0h3-0h2--0h3-0h2--0h3-0----------------------------------|
G|--2--0h3-0h2--0h3-0h2--0h3-0----------------------------------|
C|--2--0h3-0h2--0h3-0h2--0h3-0----------------------------------|

D|--------------------------------------------------------------|
A|--------------------------------------------------------------|
F|--------------------------------------------------------------|
C|--2--0h3-0h2--0h3-0h2--0h3-0h2-2-2-2-2-2-2--------------------|
G|--2--0h3-0h2--0h3-0h2--0h3-0h2-2-2-2-2-2-2--------------------|
C|--2--0h3-0h2--0h3-0h2--0h3-0h2-2-2-2-2-2-2--------------------|

D|--------------------------------------------------------------|
A|--------------------------------------------------------------|
F|--------------------------------------------------------------|
C|--2--0h3-0h2--0h3-0h2--0h3-0----------------------------------|
G|--2--0h3-0h2--0h3-0h2--0h3-0----------------------------------|
C|--2--0h3-0h2--0h3-0h2--0h3-0----------------------------------|

[Bridge]
D|--------------------------------------------------------------|
A|--------------------------------------------------------------|
F|--------------------------------------------------------------|
C|--5--7--2---4-5--7-12--9---4-5--7--2----5--7-12--2------------|
G|-------------------------------------------------2------------|
C|-------------------------------------------------2------------|

[Chorus]
D|--------------------------------------------------------------|
A|--------------------------------------------------------------|
F|--------------------------------------------------------------|
C|--5-5-5-5-5-5--7-7-7-7-7-7--2-2-2-2-2-2-2-2-2-2-2-2-----------|
G|--5-5-5-5-5-5--7-7-7-7-7-7--2-2-2-2-2-2-2-2-2-2-2-2-----------|
C|--5-5-5-5-5-5--7-7-7-7-7-7--2-2-2-2-2-2-2-2-2-2-2-2-----------|

D|--------------------------------------------------------------|
A|--------------------------------------------------------------|
F|--------------------------------------------------------------|
C|--5-5-5-5-5-5--7-7-7-7-7-7--2-2-2-2-2-2-2-2-2-2-2-2-----------|
G|--5-5-5-5-5-5--7-7-7-7-7-7--2-2-2-2-2-2-2-2-2-2-2-2-----------|
C|--5-5-5-5-5-5--7-7-7-7-7-7--2-2-2-2-2-2-2-2-2-2-2-2-----------|

D|--------------------------------------------------------------|
A|--------------------------------------------------------------|
F|--------------------------------------------------------------|
C|--5-5-5-5-5-5--7-7-7-7-7-7--2-2-2-2-2-2-2-2-2-2-2-2-----------|
G|--5-5-5-5-5-5--7-7-7-7-7-7--2-2-2-2-2-2-2-2-2-2-2-2-----------|
C|--5-5-5-5-5-5--7-7-7-7-7-7--2-2-2-2-2-2-2-2-2-2-2-2-----------|

D|--------------------------------------------------------------|
A|--------------------------------------------------------------|
F|--------------------------------------------------------------|
C|--5-5-5-5-5-5--7-7-7-7-7-7------------------------------------|
G|--5-5-5-5-5-5--7-7-7-7-7-7------------------------------------|
C|--5-5-5-5-5-5--7-7-7-7-7-7------------------------------------|

[Outro]
D|--------------------------------------------------------------|
A|--------------------------------------------------------------|
F|--------------------------------------------------------------|
C|--------------------------------------------------------------|
G|--------------------------------------------------------------|
C|--0h2-2-2-2-0h3-0h2-2-2-2-0h3-0h2-2-2-2-0h3-0h2-2-2-2---------|
PM  . . . . . . . . . . . . . . . . . . . . . . . . . .

D|--------------------------------------------------------------|
A|--------------------------------------------------------------|
F|--------------------------------------------------------------|
C|--0h2-2-2-2-0h3-0h2-2-2-2-0h3-0h2-2-2-2-0h3-5-5-5-3-3-3-------|
G|--0h2-2-2-2-0h3-0h2-2-2-2-0h3-0h2-2-2-2-0h3-5-5-5-3-3-3-------|
C|--0h2-2-2-2-0h3-0h2-2-2-2-0h3-0h2-2-2-2-0h3-5-5-5-3-3-3-------|

D|--------------------------------------------------------------|
A|--------------------------------------------------------------|
F|--------------------------------------------------------------|
C|--0h2-2-2-2-0h3-0h2-2-2-2-0h3-0h2-2-2-2-0h3-555555-333333-2---|
G|--0h2-2-2-2-0h3-0h2-2-2-2-0h3-0h2-2-2-2-0h3-555555-333333-2---|
C|--0h2-2-2-2-0h3-0h2-2-2-2-0h3-0h2-2-2-2-0h3-555555-333333-2---|            
Submit corrections


        Freedom lessons Hard to play? Try these video lessons and learn fast Freedom lessons
        
↑ Back to top | Tablatures and chords for acoustic guitar and electric guitar, ukulele, drums are parodies/interpretations of the original songs. You may use it for private study, scholarship, research or language learning purposes only