Home » C » Crossfade »

Crossfade - Dead Skin Bass

Artists:  A B C D E F G H I J K L M N O P Q R S T U V W X Y Z # 

Dead Skin Bass

(ver. 1) Click to play this song!
Crossfade
Crossfade - Dead skin

bass tab


5-stringed bass
G D A E B

   VERSO/CORO
G-|------|
D-|------|
A-|------|
E-|-0/10-|
B-|------|
                                                                              

G-|----------------------------|---------------|
D-|----------------------------|---------------|
A-|-555---------9----9----9----|-555-----------|
E-|---------777---77---77---77-|---------------|
B-|-----777--------------------|-----777-0-----|
                                                                              

G-|----------------------|
D-|----------------------|
A-|-555--------5---5-7---|
E-|---------77---7-----7-|
B-|-----777--------------|
                                                                              

   MIDDLE
G-|----------------------------|--------------------------------------|
D-|----------------------------|-----7--------------------------------|
A-|-555---------9----9----9----|-555---55--------------9----9----9----|
E-|---------777---77---77---77-|--------------9----777---77---77---77-|
B-|-----777--------------------|----------777---77--------------------|
                                                                              
Le mando congratulaciones varias a La Tatiana Muñoz de QB 2004 que una vez pues
fuimos a hacer un trabajo de oido a su casa, bien tara estaba y me traumado tanto
que he llorado de traumaciooooon, mas despues todos se fueron traumados de lo que
me he traumado.

doky2007
            
Submit corrections

↑ Back to top | Tablatures and chords for acoustic guitar and electric guitar, ukulele, drums are parodies/interpretations of the original songs. You may use it for private study, scholarship, research or language learning purposes only