Home » C » Croce Jim »

Croce Jim - Time In A Bottle Tabs

Artists:  A B C D E F G H I J K L M N O P Q R S T U V W X Y Z # 

Time In A Bottle Tabs

(ver. 2) Click to play this song!
Croce Jim
Time in a Bottle by Jim Croce.
-------------------------------------


Intro.


-5---5---5--3---3---3----3--0--1--3--1--0----------3--2--0----
--3---2-----------------------------------2--3--5--5--3--2----
----------5---4---3---3---------------------------------------
--------------------------------------------------------------
--------------------------------------------------------------
--------------------------------------------------------------

Bridge

-----------3--2--0--
--2--3--5--5--3--2--
--------------------
--------------------
--------------------
--------------------


Verse 1
  Dm       Dm7#       Dm7     Dm6 
If I could save time in a bottle  
    Gm6                          Bridge
The first thing that I'd like to do 
  Dm       Dm7       Gm6                 Dm
Is to save every day 'til eternity passes away 
        Gm6            Bridge
Just to spend them with you.

Verse 2

If I could make days last forever,
If words could make wishes come true
I'd save every day like a treasure and then again
I would spend them with you.

Chorus
          D          Dmaj7          
But there never seems to be enough time 
   D6                  D                 G      G7    Em7  A7  Bridge
To do the things you want to do once you find them.
I've looked around enough to know that 
your the one I want to go through time with.

Verse 3

If I had a box just for wishes 
and dreams that had never come true.
The box would be empty except for the memory of
how they were answered by you.


Chords

Dm    xx0231
Dm7#  xx0221
Dm7   xx0211
Dm6   xx0201
Gm6   xx2333
Dmaj7 xx0222
D6    xx0202
G     320003
G7    320002
Em7   022030
A7    x02223


Ending
-----1-----1---0-----1-----1---0-----1-----1---0--1-----
---3-----3---0-----3-----3---0-----3-----3---0----3-----
-2-----2---------2-----2---------2-----2----------2-----
--------------------------------------------------------
--------------------------------------------------------
--------------------------------------------------------
            
Submit corrections

↑ Back to top | Tablatures and chords for acoustic guitar and electric guitar, ukulele, drums are parodies/interpretations of the original songs. You may use it for private study, scholarship, research or language learning purposes only