» » »

Creeper - Winona Forever Bass

Artists:  A B C D E F G H I J K L M N O P Q R S T U V W X Y Z # 

Winona Forever Bass

(ver. 1) Click to play this song!
Creeper
 Rating:
4.4/5 (7 votes)


 Winona Forever  lessons Tabs too difficult? Try these video lessons and learn fast
 
                [Intro]

F#|---------------|---------------|----------------|---------------------|
C#|---------------|---------------|----------------|---------------------|
G#|---------------|---------------|----------------|---------------------|
D#|-0-------------|---------------|-0--------------|-0------0-0----------|

F#|-----------------------|-----------------------|-----------------------|-----------------------|
C#|-----------------------|-----------------------|-----------------------|-----------------------|
G#|-----------------------|-----------------------|-----------------------|-----------------------|
D#|-5--5----5--5--5----5--|-3--3----3--3--3----3--|-0--0----0--0--0----0--|-1--1----1--1--1----3/-|

F#|-----------------------|-----------------------|-----------------------|-----------------------|
C#|-----------------------|-----------------------|-----------------------|-----------------------|
G#|-----------------------|-----------------------|-----------------------|-----------------------|
D#|-5--5----5--5--5----5--|-3--3----3--3--3----3--|-0--0----0--0--0----0--|-1--1----1--1--1-------|



[Verse]

F#|-----------------------|-----------------------|-----------------------|-----------------------|
C#|-----------------------|-----------------------|-----------------------|-----------------------|
G#|-----------------------|-----------------------|-----------------------|-----------------------|
D#|-5--5----5--5--5----5--|-3--3----3--3--3----3--|-0--0----0--0--0----0--|-1--1----1--1--1----3/-|

F#|-----------------------|-----------------------|-----------------------|-----------------------|
C#|-----------------------|-----------------------|-----------------------|-----------------------|
G#|-----------------------|-----------------------|-----------------------|-----------------------|
D#|-5--5----5--5--5----5--|-3--3----3--3--3----3--|-0--0----0--0--0----0--|-1--1----1--1--1-------|



[Prechorus]

F#|----------------------|-------------------------|----------------------|-------------------------|
C#|----------------------|-------------------------|----------------------|-------------------------|
G#|----------------------|-3--3--3--3--3--3--3--3--|-----------------0----|-3--3--3--3--3--3--3--3--|
D#|-1----1---------------|-------------------------|-1----1----1--3-------|-------------------------|

F#|----------------------|-------------------------|-------------------------|-------------------------|
C#|----------------------|-------------------------|-------------------------|-------------------------|
G#|-----------------0----|-3--3--3--3--3--3--3--3--|-------------------------|-------------------------|
D#|-1----1----1--3-------|-------------------------|-3--3--3--3--3--3--3--3--|-3--3--3--3--3--3--3--3--|




[Chorus]

F#|-------------------------|----------------------|-------------------------|-------------------------|
C#|-------------------------|----------------------|-------------------------|-------------------------|
G#|-3--3-----3--3-----------|----------------------|-3-----3--3-----3--3-----|-------------------------|
D#|-------------------3-----|-1-----1--1-----3-----|-------------------------|-3--3--3--3--3--3--3--3--|

F#|-------------------------|----------------------|-------------------------|-------------------------|
C#|-------------------------|----------------------|-------------------------|-------------------------|
G#|-3--3-----3--3-----------|----------------------|-3-----3--3-----3--3-----|-------------------------|
D#|-------------------3-----|-1-----1--1-----3-----|-------------------------|-3--3--3--3--3--3--3--0--|

F#|-------------------------|----------------------|
C#|-------------------------|----------------------|
G#|-------------------------|----------------------|
D#|-1--1--1--1--1--1--1--1--|-1--------------------|




[Preverse]

F#|-----------------------|-----------------------|-----------------------|-----------------------|
C#|-----------------------|-----------------------|-----------------------|-----------------------|
G#|-----------------------|-----------------------|-----------------------|-----------------------|
D#|-5--5----5--5--5----5--|-3--3----3--3--3----3--|-0--0----0--0--0----0--|-1--1----1--1--1----3/-|

F#|-----------------------|-----------------------|-----------------------|-----------------------|
C#|-----------------------|-----------------------|-----------------------|-----------------------|
G#|-----------------------|-----------------------|-----------------------|-----------------------|
D#|-5--5----5--5--5----5--|-3--3----3--3--3----3--|-0--0----0--0--0----0--|-1--1----1--1--1-------|



[Verse 2]

F#|--------------------------|-------------------------------|
C#|--------------------------|-------------------------------|
G#|--------------------------|-------------------------------|
D#|-5--5--5-5-5-5-5---5---5--|-3--3--3-3-3-3-3-3-3-3-3-3-3-3-|

F#|--------------------------|-------------------------------|
C#|--------------------------|-------------------------------|
G#|--------------------------|-------------------------------|
D#|-0--0--0-0-0-0-0---0---0--|-1--1--1-1-1-1-1-1-1-1-1-1-1---|

play above Verse 2x



[Prechorus 2]

F#|----------------------|-------------------------|----------------------|-------------------------|
C#|----------------------|-------------------------|----------------------|-------------------------|
G#|----------------------|-3--3--3--3--3--3--3--3--|-----------------0----|-3--3--3--3--3--3--3--3--|
D#|-1----1---------------|-------------------------|-1----1----1--3-------|-------------------------|

F#|----------------------|-------------------------|-------------------------|-------------------------|
C#|----------------------|-------------------------|-------------------------|-------------------------|
G#|-----------------0----|-3--3--3--3--3--3--3--3--|-------------------------|-------------------------|
D#|-1----1----1--3-------|-------------------------|-3--3--3--3--3--3--3--3--|-3--3--3--3--3--3--3--3--|




[Chorus 2]

F#|-------------------------|----------------------|-------------------------|-------------------------|
C#|-------------------------|----------------------|-------------------------|-------------------------|
G#|-3--3-----3--3-----------|----------------------|-3-----3--3-----3--3-----|-------------------------|
D#|-------------------3-----|-1-----1--1-----3-----|-------------------------|-3--3--3--3--3--3--3--3--|

F#|-------------------------|----------------------|-------------------------|-------------------------|
C#|-------------------------|----------------------|-------------------------|-------------------------|
G#|-3--3-----3--3-----------|----------------------|-3-----3--3-----3--3-----|-------------------------|
D#|-------------------3-----|-1-----1--1-----3-----|-------------------------|-3--3--3--3--3--3--3--0--|

F#|-------------------------|----------------------|
C#|-------------------------|-3--------------------|
G#|-------------------------|-------3--------------|
D#|-1--1--1--1--1--1--1--1--|-------------1--------|



[Bridge]

After clean guitar part, at 2:18 
F#|-------------------------|-------------------------|
C#|-------------------------|-------------------------| play 3x
G#|-------------------------|-------------------------|
D#|-5---5-5-----3--3--3-----|-0---0-0-----1--1--1--1--|

                              16x                               15x
F#|-------------------------|---------------------------------|---------------------------------|
C#|-------------------------|---------------------------------|---------------------------------|
G#|-------------------------|---------------------------------|---------------------------------|
D#|-5---5-5-----3--3--3-----|-0-0-0-0-0-0-0-0-0-0-0-0-0-0-0-0-|-1-1-1-1-1-1-1-1-1-1-1-1-1-1-1---|



[Final Chorus]

F#|-------------------------|----------------------|-------------------------|-------------------------|
C#|-------------------------|----------------------|-------------------------|-------------------------|
G#|-3--3-----3--3-----------|----------------------|-3-----3--3-----3--3-----|-------------------------|
D#|-------------------3-----|-1-----1--1-----3-----|-------------------------|-3--3--3--3--3--3--3--3--|

F#|-------------------------|----------------------|-------------------------|-------------------------|
C#|-------------------------|----------------------|-------------------------|-------------------------|
G#|-3--3-----3--3-----------|----------------------|-3-----3--3-----3--3-----|-------------------------|
D#|-------------------3-----|-1-----1--1-----3-----|-------------------------|-3--3--3--3--3--3--3--3--|

F#|-------------------------|----------------------|-------------------------|-------------------------|
C#|-------------------------|----------------------|-------------------------|-------------------------|
G#|-3--3-----3--3-----------|----------------------|-3-----3--3-----3--3-----|-------------------------|
D#|-------------------3-----|-1-----1--1-----3-----|-------------------------|-3--3--3--3--3--3--3--3--|

F#|-------------------------|----------------------|-------------------------|-------------------------|
C#|-------------------------|----------------------|-------------------------|-------------------------|
G#|-3--3-----3--3-----------|----------------------|-3-----3--3-----3--3-----|-------------------------|
D#|-------------------3-----|-1-----1--1-----3-----|-------------------------|-3--3--3--3--3--3--3--0--|



[Outro]

F#|-------------------------|
C#|-------------------------|
G#|-------------------------| play 4x
D#|-1--1--1--1--1--1--1--1--|


F#|-------------------------|
C#|--------------3----------|
G#|-------3-----------------|
D#|-1-----------------------|
            
Submit corrections



        Winona Forever  lessons Hard to play? Try these video lessons and learn fast Winona Forever  lessons
        
↑ Back to top | Tablatures and chords for acoustic guitar and electric guitar, ukulele, drums are parodies/interpretations of the original songs. You may use it for private study, scholarship, research or language learning purposes only