» » »

Creeper - Gloom Bass

Artists:  A B C D E F G H I J K L M N O P Q R S T U V W X Y Z # 

Gloom Bass

(ver. 1) Click to play this song!
Creeper
 Rating:
4.3/5 (23 votes)
                [Intro + Verse]
G|---------------------------------------------------------------------------|
D|---------------------------------------------------------------------------|
A|------------------4-44-4-4-4-4--1-1-1s4--2-2-2222--------------------------|
E|-xxxx-----2-2-222----------------------------------------------------------|

G|---------------------------------------------------------------------------|
D|---------------------------------------------------------------------------|
A|----------4-44-4-4-4-4--6-6-6-6--4--2-2-2222-------------------------------|
E|--2-2-222------------------------------------------------------------------|

[Prechorus]
G|---------------------------------------------------------------------------|
D|---------------------------------------------------------------------------|
A|------2-------------------2------------------------------------------------|
E|---4------2-----------4------2---------------------------------------------|

[Chorus]
G|---------------------------------------------------------------------------|
D|---------------------------------------------------------------------------|
A|----------2-22-2222-------------------------------2-22-2222----------------|
E|--4-4-444------------2-2-2-22--2222-------4-4-444-----------2-2-2-22--2222-|

[Solo]
G|---------------------------------------------------------------------------|
D|---------------------------------------------------------------------------|
A|----------4-44-4-4-4-4--1-1-1s4--2-2-2222----------------------------------|
E|--2-2-222------------------------------------------------------------------|

G|---------------------------------------------------------------------------|
D|---------------------------------------------------------------------------|
A|----------4-44-4-4-4-4--6-6-6-6--4--2-2-2222-------------------------------|
E|--2-2-222------------------------------------------------------------------|

G|--------------------------------------------------------------------------------------|
D|--------------------------------------------------------------------------------------|
A|--44-44-44-44-4444--66-66-66-66-6666--88-88-88-88-8888--6666-8888-9999-11111111-13\---| (11 & 13 not 1s)
E|--------------------------------------------------------------------------------------|

[Bridge] (Break for guitar to begin with, play when drums hit)
G|---------------------------------------------------------------------------|
D|---------------------------------------------------------------------------|
A|---------4-4---6-6---2---------2-------------------------------------------|
E|---2-2---------------------------------------------------------------------|

G|---------------------------------------------------------------------------|
D|---------------------------------------------------------------------------|
A|-----------------4-4-44-44-44--6-6-66-66-66--2-2-22-22-22------------------|
E|---2-2-22-22-22------------------------------------------------------------|

G|---------------------------------------------------------------------------|
D|---------------------------------------------------------------------------|
A|-----------------4-4-44-44-44--6-6-66-66-66--2-2-22-22-22------------------|
E|---2-2-22-22-22------------------------------------------------------------|

[Prechorus]
G|---------------------------------------------------------------------------|
D|---------------------------------------------------------------------------|
A|------2-------------------2------------------------------------------------|
E|---4------2-----------4------2---------------------------------------------|

[Chorus]
G|---------------------------------------------------------------------------|
D|---------------------------------------------------------------------------|
A|----------2-22-2222-------------------------------2-22-2222----------------|
E|--4-4-444------------2-2-2-22--2222-------4-4-444-----------2-2-2-22--2222-|

[Outro]
G|---------------------------------------------------------------------------|
D|---------------------------------------------------------------------------|
A|------2-------------------2------------------------------------------------|
E|---4------2-----------4------2---------------------------------------------|            
Submit corrections

↑ Back to top | Tablatures and chords for acoustic guitar and electric guitar, ukulele, drums are parodies/interpretations of the original songs. You may use it for private study, scholarship, research or language learning purposes only