» » »

Creeper - Black Rain Bass

Artists:  A B C D E F G H I J K L M N O P Q R S T U V W X Y Z # 

Black Rain Bass

(ver. 1) Click to play this song!
Creeper
 Rating:
4.3/5 (9 votes)


 Black Rain  lessons Tabs too difficult? Try these video lessons and learn fast
 
                [Intro]
F#|----------------------|
C#|----------------------|
G#|--7-------------------|
D#|--0--4--5--7----------|

[Pre-Verse and Verse]
F#|---------------------------------------------------------------------------|
C#|---------------------------------------------------------------------------| 
G#|----------------------------------3-33-33-33-3-3---------------------------| 
D#|--5-55-55-55-5-5--5-55-55-55-5-5------------------3-33-33-33-3-3-----------|
                                                                                 2x
F#|---------------------------------------------------------------------------| 
C#|---------------------------------------------------------------------------|
G#|----------------------------------7-8-88-88-88-8-8-7-77-77-77-7-7----------|
D#|--5-55-55-55-5-5--5-55-55-55-5-5-------------------------------------------|

[Pre-Chorus]
F#|---------------------------------------------------------------------------|
C#|---------------------------------------------------------------------------|
G#|---------------------------------------------------------------------------|
D#|--1----1-1----1-1----1-1--3--5---------/-10-10-10-8-8-8-8-7----------------|

F#|---------------------------------------------------------------------------|
C#|---------------------------------------------------------------------------|
G#|---------------------------------------------------------------------------|
D#|--1----1-1----1-1----1-1--3--5-5-5-5-5-5-5-5-5-5-5-5-5-5-5-5---------------|

[Chorus]
F#|---------------------------------------------------------------------------|
C#|---------------------------------------------------------------------------|
G#|--3-3-3-3-3-3-3-3-3-3-3-3--7-7-7-7-7-7-7-7-7-7-7-7-7-----------------------|
D#|---------------------------------------------------------------------------|

F#|---------------------------------------------------------------------------|
C#|---------------------------------------------------------------------------|
G#|---------------------------------------------------------------------------|
D#|--5-5-5-5-5-5-5-5--3-3--3-3--1-1-1-1-1-1-1-1--0-0--3-3--5------------------|

[Verse]
F#|---------------------------------------------------------------------------|
C#|---------------------------------------------------------------------------| 
G#|----------------------------------3-33-33-33-3-3---------------------------| 
D#|--5-55-55-55-5-5--5-55-55-55-5-5------------------3-33-33-33-3-3-----------|
                                                                                
F#|---------------------------------------------------------------------------| 
C#|---------------------------------------------------------------------------|
G#|----------------------------------7-8-88-88-88-8-8-7-77-77-77-7-7----------|
D#|--5-55-55-55-5-5--5-55-55-55-5-5-------------------------------------------|

[Pre-Chorus]
F#|---------------------------------------------------------------------------|
C#|---------------------------------------------------------------------------|
G#|---------------------------------------------------------------------------| 
D#|--1----1-1----1-1----1-1--3--5---------------------------------------------|
                                                                                
F#|---------------------------------------------------------------------------|
C#|---------------------------------------------------------------------------|
G#|---------------------------------------------------------------------------|
D#|--1----1-1----1-1----1-1--3--5--5-5-5-5-5-5-5-5-5-5-5-5-5-5-5--------------|

[Chorus]
F#|---------------------------------------------------------------------------|
C#|---------------------------------------------------------------------------|
G#|--3-3-3-3-3-3-3-3-3-3-3-3--7-7-7-7-7-7-7-7-7-7-7-7-7-----------------------|
D#|---------------------------------------------------------------------------|
                                                                                 2x
F#|---------------------------------------------------------------------------|
C#|---------------------------------------------------------------------------|
G#|---------------------------------------------------------------------------|
D#|--5-5-5-5-5-5-5-5--3-3--3-3--1-1-1-1-1-1-1-1--0-0--3-3---------------------|

[Bridge]
F#|---------------------------------------------------------------------------|
C#|---------------------------------------------------------------------------|
G#|---------------------------------------------------------------------------|
D#|--5-5--0--1--1-1--1-1-1--0-0-0-0-0--3-3--3-3-3-----------------------------|

F#|---------------------------------------------------------------------------|
C#|---------------------------------------------------------------------------|
G#|---------------------------------------------------------------------------|
D#|--5-5--0--1--1-1--1-1-1--0-0-0-0-0--3-3--3-3-3-----------------------------|

F#|---------------------------------------------------------------------------|
C#|---------------------------------------------------------------------------|
G#|--12\----------------------------------------------------------------------|
D#|-------0--1--1-1--1-1-1--0-0-0-0-0--3-3--3-3-3-----------------------------|

F#|---------------------------------------------------------------------------|
C#|---------------------------------------------------------------------------|
G#|---------------------------------------------------------------------------|
D#|--5-5--0--1--1-1--1-1-1--0-0-0-0-0--3-3--3-3-3-----------------------------|

["The Midnight Kids"]
F#|----------------------|
C#|----------------------|
G#|--0--2--3--5----------|
D#|----------------------|

[Chorus]
F#|---------------------------------------------------------------------------|
C#|---------------------------------------------------------------------------|
G#|--3-3-3-3-3-3-3-3-3-3-3-3--7-7-7-7-7-7-7-7-7-7-7-7-7-----------------------|
D#|---------------------------------------------------------------------------|
                                                                                 2x
F#|---------------------------------------------------------------------------|
C#|---------------------------------------------------------------------------|
G#|---------------------------------------------------------------------------|
D#|--5-5-5-5-5-5-5-5--3-3--3-3--1-1-1-1-1-1-1-1--0-0--3-3---------------------|            
Submit corrections



        Black Rain  lessons Hard to play? Try these video lessons and learn fast Black Rain  lessons
        
↑ Back to top | Tablatures and chords for acoustic guitar and electric guitar, ukulele, drums are parodies/interpretations of the original songs. You may use it for private study, scholarship, research or language learning purposes only