Home » C » Creation »

Creation - Making Time Bass

Artists:  A B C D E F G H I J K L M N O P Q R S T U V W X Y Z # 

Making Time Bass

(ver. 1) Click to play this song!
Creation
Verse:
G-|(A)---------------------------|(B)---6-8------|
D-|-----6-4----------------------|---/8-----6-4--|
A-|-4-4-----6---6-6-6-6-6-6-6----|--------------6|
E-|------------------------------|---------------|
(1st time Ax4 B Ax5)  (2nd time A B Ax7)

G-|----------------------|
D-|-6-6---6-4------------|
A-|-----6-----6----------| (x3)
E-|----------------------|

Chorus:
G-|---------------------------------------------------------------|
D-|-4--4-------------6-6----4-6---4--4--------------6-6----4--6---|
A-|-----------4--4---------6-------------4--4------------6--------|
E-|---------------------------------------------------------------|
    Why do we have to carry on,  Always singing the same old song

G-|-----------------------------------------|
D-|----6----4---6----------6----4---6-------|
A-|-----------------------------------------|
E-|-----------------------------------------|
   The same old song,  the same old song

(repeat verse and chorus)

Solo
G---------------|    |--------------|     |-------------|-8-6-8-6-| (x1)
D---------------|    |6-6-6-----4---|     |-8-8-8-----6-|-8-6-8-6-|
A--6-6-4-6-7---6|    |------4-6-----|     |-------6-8-------------|
E---------------|(x2)|--------------|(x5) |-----------------------| (x5)

Last Verse:
G-|--------------|       G-|----------------------|
D-|-----8-6------|       D-|-8-8---8-6------------|
A-|-6-6-----8----|       A-|-----8-----8----------| (x3)
E-|--------------|(x8)   E-|----------------------|

Chorus:
G-|----------------------------------------------------------------|
D-|-6--6-------------8-8----6-8---6--6--------------6-6-----6--8---|
A-|-----------6--6--------8--------------6--6-------------8--------|
E-|----------------------------------------------------------------|
    Why do we have to carry on,  Always singing the same old song

G-|---------------------------------------|
D-|----8----6---8----------8----6---8-----|
A-|---------------------------------------|
E-|---------------------------------------|
   The same old song,  the same old song

Ending:
G-|-------------------|
D-|-------8-6-8-----8-|
A-|--6-8---------6----|
E-|-------------------| (x3)
            
Submit corrections

↑ Back to top | Tablatures and chords for acoustic guitar and electric guitar, ukulele, drums are parodies/interpretations of the original songs. You may use it for private study, scholarship, research or language learning purposes only