» » »

Cream - Take It Back Tabs

Artists:  A B C D E F G H I J K L M N O P Q R S T U V W X Y Z # 

Take It Back Tabs

(ver. 1) Click to play this song!
Cream
 Rating:
4.3/5 (12 votes)

 Take It Back lessons Tabs too difficult? Try these video lessons and learn fast
 
                Intro
  Q=123(8=s8)
  N.C.
 4/4
  Gtr I (El. Gtr. w/ light dist.)
   |----3----|  |--3--|   |----3----|  |--3--|
   E      E  E  E  E  E   E      E  E  E  E  E
|-----------------------------------------------|
|-13b15==13-13-13-13-13r-13b15==13-13-13-13-13r-|
|-----------------------------------------------|
|-----------------------------------------------|
|-----------------------------------------------|
|-----------------------------------------------|
|
| Gtr II (Clean El. Gtr.)
|  W
|-----------------------------------------------|
|-----------------------------------------------|
|-----------------------------------------------|
|-----------------------------------------------|
|-----------------------------------------------|
|-----------------------------------------------|


   |----3----|   |----3----|  |--3--|  |--3--|        |--3--|  |--3--|
   E      E  E   E      E  E  E  E  E  E  E  E    Q   E  E  E  E  E  E  a  E      E
|----------------------------------------------|-------------------------------------|
|-13b15==13-13r-13b15==13-13-13r13-10----10----|-----------10----10------------------|
|-------------------------------------12----10-|-----10-11----12----12-10h11---------|
|----------------------------------------------|-12------------------------------12--|
|----------------------------------------------|-------------------------------------|
|----------------------------------------------|-------------------------------------|
|
|                                                 ~~
|                                                     |--3--|  |--3--|
|  W                                              Q   E  E  E  E  E  E     E      E
|----------------------------------------------|-------------------------------------|
|----------------------------------------------|-------------------------------------|
|----------------------------------------------|-------------------------------------|
|----------------------------------------------|---------------7---------------------|
|----------------------------------------------|------8----/9-----8-10-----8b8.5-----|
|----------------------------------------------|-10-----10-----------------------10--|


                         Chorus
                      $
                          D
   E E Q   Q    a E E     Q   Q   Q  Q
|-10------------------||--------------------|
|---------------------||o-------------------|
|---------------------||--7---7---7---------|
|---------------------||--7---7---7---------|
|---------------5h7-8-||o-9---9---9---------|
|---------------------||--------------------|
|
|  E E Q  +E  E a E E     E E E E Q  Q
|---------------------||--------------------|
|---------------------||o---------7--5------|
|--7------------5h7-5-||--7---7---7--5b5.5--|
|----7-7--(7)-7-------||--7---7---7--5b5.5--|
|---------------------||o-9---9-------------|
|---------------------||--------------------|


  A7          Ab7   G7
                            |--3--|
  Q   E E E Q   E   Q   E E E E   E E E
|-----------------|----------------------|
|-------8---8-----|-----8---8p6-----5----|
|-----6---6-------|---------------7---7--|
|-----------------|----------------------|
|-----------------|----------------------|
|-----------------|----------------------|
|
| e E e E e E Q     e E e E e   E   e E
|-----------------|----------------------|
|-----------------|----------------------|
|-6-6-6-6-6-6-5---|-4-4-4-4-4---4---4-4--|
|-----------------|----------------------|
|-7-7-7-7-7-7-6---|-5-5-5-5-5---5---5-5--|
|-5-5-5-5-5-5-4---|-3-3-3-3-3---3---3-3--|


  D         A               D
  +E    E   Q      H        Q   Q   Q  Q
|-------------------------|-------------------|
|-------------------------|-------------------|
|-(7)---------------------|-7---7---7---------|
|-------------------------|-7---7---7---------|
|-------------------------|-9---9---9---------|
|-------------------------|-------------------|
|
|  |--3---|
|  E  E   E Q      Q  E E   E E E E Q  Q
|-------------------------|-------------------|
|--7--7---7-5-------------|---------7--5------|
|--7--7---7-5b5.5--6--5-6-|-7---7---7--5b5.5--|
|--7--7---7-5b5.5--7--5-6-|-7---7---7--5b5.5--|
|---------------------7-8-|-9---9-------------|
|-------------------------|-------------------|


  A7          Ab7   G7
                            |--3--|
  E E e E E Q   E   Q   E E E E   E E E
|-----------------|---------------------|
|-----8-8-8-------|-----6-6-6p5-----5---|
|---6-------6-----|---------------7---7-|
|-----------------|---------------------|
|-----------------|---------------------|
|-----------------|---------------------|
|
| e E e E e E Q     e E e E e   E   e E
|-----------------|---------------------|
|-----------------|---------------------|
|-6-6-6-6-6-6-5---|-4-4-4-4-4---4---4-4-|
|-----------------|---------------------|
|-7-7-7-7-7-7-6---|-5-5-5-5-5---5---5-5-|
|-5-5-5-5-5-5-4---|-3-3-3-3-3---3---3-3-|


                                                1st - 4th Verses
  D                                       AmA#m  Bm         AmA#m
       |-3-| |-3-| |-3-|
  +Q   E E E E E E E E E    E  E E E +Q   E E    E E E E Q  E E
|------------------------|--------------------||----------------|
|--------7-----8-----9---|-10\----------------||----------------|
|-(7)--------------------|----------------5-6-||-7---7------5-6-|
|------7---7-8---8-9---9-|-10\-7-7-7-(7)------||----------------|
|------------------------|--------------------||----------------|
|------------------------|--------------------||----------------|
|
|  Q   Q     H              H         Q   E E    E E E E Q  E E
|--2---------------------|----------------5-6-||-7---7------5-6-|
|--3---------------------|----------------5-6-||-7---7------5-6-|
|--2---------------------|----------------5-6-||-7---7------5-6-|
|--0---------------------|----------------7-8-||-9---9------7-8-|
|------------------------|----------------7-8-||-9---9------7-8-|
|------------------------|----------------5-6-||-7---7------5-6-|


  Bm         AmA#m Bm         AmA#m Bm
  E E E E Q  E E   E E E E Q  E E   E E E E H
|----------------|----------------|-------------------|
|----------------|----------------|-------------------|
|-7---7------5-6-|-7---7------5-6-|-7---7-------------|
|----------------|----------------|-------------------|
|----------------|----------------|-------------------|
|----------------|----------------|-------------------|
|
| E E E E Q  E E   E E E E Q  E E   E E E E E E  E  E
|-7---7------5-6-|-7---7------5-6-|-7---7-------------|
|-7---7------5-6-|-7---7------5-6-|-7---7--------5--3-|
|-7---7------5-6-|-7---7------5-6-|-7---7--------5--3-|
|-9---9------7-8-|-9---9------7-8-|-9---9-----5-(5)-3-|
|-9---9------7-8-|-9---9------7-8-|-9---9-------------|
|-7---7------5-6-|-7---7------5-6-|-7---7-------------|


  G7
             |-3-|                  |-3-|                  |-3-|
  E    E E E E E E E E   E    E E E E E E E E   E    E E E E E E E E
|----------------------|----------------------|----------------------|
|--------6-6-6p5---5---|--------8-8-8p5---5---|--------6-6-6p5---5---|
|------7---------7---7-|------7---------7---7-|------7---------7---7-|
|----------------------|----------------------|----------------------|
|----------------------|----------------------|----------------------|
|----------------------|----------------------|----------------------|
|
| Q      Q   Q     Q     Q      Q   Q     Q     Q      Q   Q     Q
|----------------------|----------------------|----------------------|
|------------------5---|-3----------------5---|-3----------------5---|
|-3tr4-------------5---|-3tr4-------------5---|-3tr4-------------5---|
|------------------5---|-3----------------5---|-3----------------5---|
|----------------------|----------------------|----------------------|
|----------------------|----------------------|----------------------|


                           D                   A7          Ab7
              |-3--|
  E    E E E  E  E E E E   Q   Q   Q  Q        Q   E E E Q   E
|------------------------|-------------------|------------------|
|--------8-8--8p=5---5---|-------------------|-----8-8-8-8------|
|------7-----------7---7-|-7---7---7---------|------------------|
|------------------------|-7---7---7---------|------------------|
|------------------------|-9---9---9---------|------------------|
|------------------------|-------------------|------------------|
|
| Q      Q    Q      Q     E E E E Q  Q        e E e E e E Q
|------------------------|-------------------|------------------|
|-3----------(5)---------|---------7--5------|------------------|
|-3tr4--------5------6---|-7---7---7--5b5.5--|-6-6-6-6-6-6-5----|
|-3-----------5------6---|-7---7---7--5b5.5--|------------------|
|--------------------8---|-9---9-------------|-7-7-7-7-7-7-6----|
|------------------------|-------------------|-5-5-5-5-5-5-4----|


                                                 1.,D.S.
               To Coda
  G7                     D
          |--3--|             |-3-| |-3-| |-3-|                  |-3-|
  Q   E E E E   E E E    +Q   E E E E E E E E E    E  E E E +Q   E E E
|----------------------|------------------------|-----------------------||
|-----6-6-6p5-----5----|--------7-----8-----9---|-10\------------------o||
|---------------7---7--|-(7)--------------------|----------------5h6h7--||
|----------------------|------7---7-8---8-9---9-|-10\-7-7-7-(7)---------||
|----------------------|------------------------|----------------------o||
|----------------------|------------------------|-----------------------||
|
| e E e E e   E   e E     Q   Q     H              W
|----------------------|--2---------------------|-----------------------||
|----------------------|--3---------------------|----------------------o||
|-4-4-4-4-4---4---4-4--|--2---------------------|-----------------------||
|----------------------|--0---------------------|-----------------------||
|-5-5-5-5-5---5---5-5--|------------------------|----------------------o||
|-3-3-3-3-3---3---3-3--|------------------------|-----------------------||


                          Outro
  2.
           D.S. al Coda &
                           D
                 |-3-|         |-3-| |-3-| |-3-|
   E  E E E +Q   E E E     E E E E E E E E E E E    E E   Q    H       +W
|-----------------------||-----------------------|------------------|---------*|
|-10\-------------------||-------7-----8-----9---|-10---/12---10----|-(10)----*|
|----------------5h6h7--||-----------------------|------------------|---------*|
|-10\-7-7-7-(7)---------||---7-7---7-8---8-9---9-|-10---/12---10----|-(10)----*|
|-----------------------||-----------------------|------------------|---------*|
|-----------------------||-----------------------|------------------|---------*|
|
|  W                       E E Q     H              Q     E E  H       +W
|-----------------------||-2---------------------|--------2----2----|--(2)----*|
|-----------------------||-3---------------------|--------3----3----|--(3)----*|
|-----------------------||-2---------------------|--------2----2----|--(2)----*|
|-----------------------||-0---------------------|--------0----0----|--(0)----*|
|-----------------------||-----------------------|------------------|---------*|
|-----------------------||-----------------------|------------------|---------*|
            
Submit corrections


        Take It Back lessons Hard to play? Try these video lessons and learn fast Take It Back lessons
        
↑ Back to top | Tablatures and chords for acoustic guitar and electric guitar, ukulele, drums are parodies/interpretations of the original songs. You may use it for private study, scholarship, research or language learning purposes only