» » »

Cream - Blue Condition Tabs

Artists:  A B C D E F G H I J K L M N O P Q R S T U V W X Y Z # 

Blue Condition Tabs

(ver. 1) Click to play this song!
Cream
 Rating:
4.3/5 (9 votes)

 Blue Condition lessons Tabs too difficult? Try these video lessons and learn fast
 
                 Intro                          1st - 3rd Verses
  Q=82
  N.C.           C               G7   C     G7
 12/8
  Gtr I (El. Gtr. w/ light dist.)
   Q   E S S e e  Q.   e e e     Q.    Q.   Q.   E. S E
|----------------^0----------||-------------------------|
|--8\--6-5h6p5-3-^1----------||o-3----/5----3-----------|
|----------------^0----------||--0-----0----0-----------|
|-10\--7-5h7p5-3-^2----------||--3----/5----3----5--3-5-|
|----------------^3------2-5-||o------------------------|
|----------------------3-----||-------------------------|


       C  G              G7   C     G7                 C  G
  Q.   Q  E Q.   e e e   Q.    Q.   Q.   E. S E   Q.   Q  E Q.   e e e
|----------------------|------------------------|-----------------------|
|------5----3----------|-3----/5----3-----------|------5----3-----------|
|------5----4----------|-0-----0----0-----------|------5----4-----------|
|------5----5----------|-3----/5----3----5--3-5-|------5----5-----------|
|------------------2-5-|------------------------|------------------2-5--|
|-3-------3------3-----|------------------------|-3-------3------3------|


  G7   C     G7                 C  G              G7   C     G7
  Q.    Q.   Q.   E. S E   Q.   Q  E Q.   e e e   Q.    Q.   Q.   E. S E
|------------------------|----------------------|-------------------------|
|-3----/5----3-----------|------5----3----------|-3----/5----3------------|
|-0-----0----0-----------|------5----4----------|-0-----0----0------------|
|-3----/5----3----5--3-5-|------5----5----------|-3----/5----3----5--3-5--|
|------------------------|------------------2-5-|-------------------------|
|------------------------|-3-------3------3-----|-------------------------|


                         Chorus
                       $
       C  G               C
  Q.   Q  E Q.   e e e    Q  e Q   E  Q.   E   E E
|----------------------||----5-5--(3)-5------------|
|------5----3----------||----5-5---3--5----4b5-----|
|------5----4----------||----5-5---3--5--------5---|
|------5----5----------||----5-5---3--5----------5-|
|------------------2-5-||-3------------------------|
|-3-------3------3-----||--------------------------|


  Q  e Q   E  Q.   S   +S  E   E
|----5-5--(3)-5------------------|
|----5-5---3--5----6b7r(6)-4b5---|
|----5-5---3--5----------------5-|
|----5-5---3--5------------------|
|-3------------------------------|
|--------------------------------|


                                                    To Coda
                                 G
 9/8                6/8         12/8
  Q  e Q   E  Q.     Q.   Q.      Q.    Q.    Q.    Q.
|----5-5--(3)-5----|-5----5----|----------------------------|
|----5-5---3--5----|-5----5----|-12----12----12----12-------|
|----5-5---3--5----|-5----5----|-12----12----12----12-------|
|----5-5---3--5----|-5----5----|-12----12----12----12-------|
|-3----------------|-----------|-10----10----10----10---10--|
|------------------|-----------|----------------------------|
                                  Q.    Q.    Q.    Q    E


  1.,2.                          3.
                                                  D.S. al Coda
  G    C                          G    C
   e E  E  +Q.    +Q.   e e e      e E  E  +Q.    +Q.   e e e
|-------8--(8)----(8)----------||-------8--(8)----(8)----------||
|-12----8--(8)----(8)---------o||-12----8--(8)----(8)----------||
|-12----9--(9)----(9)----------||-12----9--(9)----(9)----------||
|-12---10-(10)---(10)----------||-12---10-(10)---(10)----------||
|-10---10-(10)---(10)-----2-5-o||-10---10-(10)---(10)-----2-5--||
|-------8--(8)----(8)---3------||-------8--(8)----(8)---3------||


 Outro
  &
  G    C
   e E  E  +Q.    +H.         +W.
|-------8--(8)----(8)------|--(8)----*|
|-12----8--(8)----(8)------|--(8)----*|
|-12----9--(9)----(9)------|--(9)----*|
|-12---10-(10)---(10)------|-(10)----*|
|-10---10-(10)---(10)------|-(10)----*|
|-------8--(8)----(8)------|--(8)----*|            
Submit corrections


        Blue Condition lessons Hard to play? Try these video lessons and learn fast Blue Condition lessons
        
↑ Back to top | Tablatures and chords for acoustic guitar and electric guitar, ukulele, drums are parodies/interpretations of the original songs. You may use it for private study, scholarship, research or language learning purposes only