Home » C » Crazy Town »

Crazy Town - B-Boy 2000 Tabs

Artists:  A B C D E F G H I J K L M N O P Q R S T U V W X Y Z # 

B-Boy 2000 Tabs

(ver. 1) Click to play this song!
Crazy Town
 Main riff #1
e||---------------------|---------------------|---------------------|---------------------||
B||---------------------|---------------------|---------------------|---------------------||
G||*--------------------|---------------------|---------------------|--------------------*||
D||*1--1----1--0--------|-1--1----1--0--------|-1--1----1--0--------|-1--1----1--0-------*||
A||-1--1----1--0--------|-1--1----1--0--------|-1--1----1--0--------|-1--1----1--0--------||
D||-1--1----1--0--------|-1--1----1--0--------|-1--1----1--0--------|-1--1----1--0--------||

  Main riff #2
|---------------------|---------------------|
|---------------------|---------------------|
|---------------------|---------------------|
|-1--1----1--0--------|-1--1----1--0--------|
|-1--1----1--0--------|-1--1----1--0--------|
|-1--1----1--0--------|-1--1----1--0--------|

   End riff
||------------------------|-----------------------||
||------------------------|-----------------------||
||*--7h8p7--8--7-------7--|-6-------6--5---------*||
||*----------------8------|-----7---------(6)-(7)*||
||------------------------|-----------------------||
||------------------------|-----------------------||            
Submit corrections

↑ Back to top | Tablatures and chords for acoustic guitar and electric guitar, ukulele, drums are parodies/interpretations of the original songs. You may use it for private study, scholarship, research or language learning purposes only