Home » C » Crash Test Dummies »

Crash Test Dummies - Mmm Mmm Mmm Mmm Bass

Artists:  A B C D E F G H I J K L M N O P Q R S T U V W X Y Z # 

Mmm Mmm Mmm Mmm Bass

(ver. 1) Click to play this song!
Crash Test Dummies
Track: Mmmmm Mmmmm

Okay, the only other tab I could find for this on the entire internet was COMPLETELY
wrong.  This, on the the other hand is 100% right, 'fo shizzle.

It's in standard  E A D G tuning, I just couldn't be bothered to put the string name
at the beginning of each tab line.

Assume it's all

G|--
D|--
A|--
E|--

This took me quite a while to get right.  I don't mind people putting it on their sites, 
please don't take my details off!  That's not fair :)

Lead in at 0:52
--------------------------------------------------------------|
--------------------------------------------------------------|
--------------------------------------------------------------|
---------------------------------------------4--4--6--6-------|

Verse
--------------------------------------------------------------|
--------------------------------------------------------------|
--0-3----------6----------6--------5-6-5-3-1------------------|
---------6---------3---4-----6--------------------------------|

-------------------------------------------------------------|
----------------------------6---5----------------------------|
-------------6---------6-----------6---------8-8-------------|
-----4---6--------6--------------------5--6------------------|

-------------------------------------------------|
-------------------------------------------------|
-------------------------------------------------|
---6-6-7--9-10-11-----6-6-7--9-10-11--10--11-----|

Chorus
--------------------------------------------------------------|
--------------------------------------------------------------|
---------5--5----------5--5-----------------------------------|
---3--3----------3--3----------4----6--6----4----6--6---------|

-----------------------------------------3------------5-3-------|
-------------------------------5-6-5-3-1----5-6-5-3-1-----------|
---------5--5----------5--5-------------------------------------|
---3--3----------3--3--------------------------------------0--1-|

1:50
But both...

-----------------------------------------------------------------|
--------------------------------------------------------5/6------|
-------5-6---------5--6--8----------5-6--------------------------|
-1----------4-6--------------8-8-----------8--6-----3------------|


----------8---10---12---10---------------------------------|
--5h6/8----------------------------------------------------|
-----------------------------------------------------------|
-----------------------------------------------------------|


Bass breaks
This riff is at 2:11

----------------------------------------------------------|
----------------------------------------------------------|
---6-5-3--------------------------------------------------|
---------3--4---------------------------------------------|


Then 2:20
-----------------------------------------------------------|
---5h6p5---------------------------------------------------|
------------6p5h6p6----------------------------------------|
----------------------6------------------------------------|


Bass comes back in at 2:30 on the offbeat, tricky to get the timing right
--------------------------------------------------------------|
-------------------6--5---3-----------------------------------|
--------------------------------------------------------------|
--0-1-2-4---4-------------------------------------------------|


Chorus
--------------------------------------------------------------|
--------------------------------------------------------------|
---------5--5----------5--5-----------------------------------|
---3--3----------3--3----------4--4--6--6----4--4--6--6-------|

-----------------------------------------3------------0----------|
-------------------------------5-6-5-3-1----5-6-5-3-1----3--1--3-|
---------5--5----------5--5--------------------------------------|
---3--3----------3--3--------------------------------------------|


---------------------------------------------------------------8--8---------|
------3-3------------------------------------------------55-6--6--6---------|
-----------5-6---------5--6--8----------5-6---------------------------55-6--|
-0-1-------------4-6--------------8-8-----------4--6------------------------|


-----------------------------------------------------------8--8---------------------|
------3--3-3-----------------------------------------------6--6---------8--8--------|
--------------5-6---------5--6--8----------5-6--------------------------6--6--------|
--0-0-1--1-1--------4-6--------------8-8-----------8--6--4-------4--3---------------|
            
Submit corrections

↑ Back to top | Tablatures and chords for acoustic guitar and electric guitar, ukulele, drums are parodies/interpretations of the original songs. You may use it for private study, scholarship, research or language learning purposes only