» » »

Cranberries - Zombie Tabs

Artists:  A B C D E F G H I J K L M N O P Q R S T U V W X Y Z # 

Zombie Tabs

(ver. 3) Click to play this song!
Cranberries
 Rating:
3.8/5 (5 votes)

 Zombie lessons Tabs too difficult? Try these video lessons and learn fast
 
                Cranberries - Zombie 
(from the album 'no need to argue' )


main riff : 

e---------------------------|---------------------------|
B---------------------------|---------------------------|
G---------------------------|---------------------------|
D--2--2--2--2--2--2--2--2--2|--2--2--2--2--2--2--2--2--2|
A--2--2--2--2--2--2--2--2--2|--3--3--3--3--3--3--3--3--3|    
E---------------------------|---------------------------|
   ^  v  ^  v  ^  v  ^  ^  ^|  ^  v  ^  v  ^  v  ^  ^  ^|

----------------------------|---------------------------|
----------------------------|---------------------------|
----------------------------|---------------------------|
----------------------------|---------------------------|
---2--2--2--2--2--2--2--2--2|---------------------------|
---3--3--3--3--3--3--3--3--3|--2--2--2--2--2--2--2--2--2|
   ^  v  ^  v  ^  v  ^  ^  ^|  ^  v  ^  v  ^  v  ^  ^  ^|

play this riff once as an intro and then just repeat it 
during the entire song . Play it with your plectrum and
as hard as you want. It sounds always good ...

lyrics : 

Another head hangs lowly,
Child is slowly taken.
And the violence caused such silence,
Who are we mistaken?

But you see, it's not me, it's not my family.
In your head, in your head they are fighting,
With their tanks and their bombs,
And their bombs and their guns.
In your head, in your head, they are crying...

In your head, in your head,
Zombie, zombie, zombie,
Hey, hey, hey. What's in your head,
In your head,
Zombie, zombie, zombie?
Hey, hey, hey, hey, oh, dou, dou, dou, dou, dou...

Another mother's breakin',
Heart is taking over.
When the vi'lence causes silence,
We must be mistaken.

It's the same old theme since nineteen - sixteen.
In your head, in your head they're still fighting,
With their tanks and their bombs,
And their bombs and their guns.
In your head, in your head, they are dying...

In your head, in your head,
Zombie, zombie, zombie,
Hey, hey, hey. What's in your head,
In your head,
Zombie, zombie, zombie?
Hey, hey, hey, hey, oh, oh, oh,
Oh, oh, oh, oh, hey, oh, ya, ya - a...
            
Submit corrections


        Zombie lessons Hard to play? Try these video lessons and learn fast Zombie lessons
        
↑ Back to top | Tablatures and chords for acoustic guitar and electric guitar, ukulele, drums are parodies/interpretations of the original songs. You may use it for private study, scholarship, research or language learning purposes only