» » »

Cranberries - You And Me Bass

Artists:  A B C D E F G H I J K L M N O P Q R S T U V W X Y Z # 

You And Me Bass

(ver. 1) Click to play this song!
Cranberries
 Rating:
4/5 (4 votes)

 You And Me lessons Tabs too difficult? Try these video lessons and learn fast
 
                Artis: Cranberries
Tuning: Normal, G D A E
Intro:
G----7--------10--------10----------8-------7---7---------------------|
D-------8---------8--------8----------10------8----8------------------| x2
A--6-------6---------6------------------------------------------------|
E--------------------------------8--------8---------------------------|

Verse 1:(00:10)
G----------------------------------------------------|
D--1--3-----------3-5-5-3----1--3-----------3-5-5-3--| x2
A-------1-1----3------------------1-1----3-----------|
E----------------------------------------------------|

Pre-Chorus:(00:30)
G----------------------------------------------------|
D--1--3-----------3-5-5-3----1--3-----------3-5-5-3--| x2
A-------1-1----3------------------1-1----3-----------|
E----------------------------------------------------|

Chorus:(00:50)
                    you and me
G-----------------------------------------|
D-----------------------------------------| x4
A----------3-3-3-3-1-1-1-1-3-3-3-3--------|
E--4-4-4-4--------------------------------|

After-Chorus:(01:10)
G------------------------------|
D--1--3--------------3-55-3----| x5
A-------1-1-------3------------|
E------------------------------|

Verse 2:(01:30)
G----7--------10--------10----------8-------7---7---------------------|
D-------8---------8--------8----------10------8----8------------------| x4
A--6-------6---------6------------------------------------------------|
E--------------------------------8--------8---------------------------|

Pre-Chorus:(1:50)
G----------------------------------------------------|
D--1--3-----------3-5-5-3----1--3-----------3-5-5-3--| x2
A-------1-1----3------------------1-1----3-----------|
E----------------------------------------------------|

Chorus:(02:10)
                    you and me
G-----------------------------------------|
D-----------------------------------------| x4
A----------3-3-3-3-1-1-1-1-3-3-3-3--------|
E--4-4-4-4--------------------------------|

Chorus2:(02:30)
                    you and me
G-----------------------------------------|
D-----------------------------------------| x4
A----------3-3-3-3-1-1-1-1-3-3-3-3--------|
E--4-4-4-4--------------------------------|

After-Chorus:(02:50)
G------------------------------|
D--1--3--------------3-55-3----| x5
A-------1-1-------3------------|
E------------------------------|

Outro:(03:10)
G----7--------10--------10----------8-------7---7---------------------|
D-------8---------8--------8----------10------8----8------------------| x4
A--6-------6---------6------------------------------------------------|
E--------------------------------8--------8---------------------------|

      (03:27)
G-------8-----------8----------8------------8---------8---------------|
D---------10----------10----------10----------10----------------------| x1
A---------------------------------------------------------------------|
E----8--------8-----------8---------------8-------8-------------------|
            
Submit corrections


        You And Me lessons Hard to play? Try these video lessons and learn fast You And Me lessons
        
↑ Back to top | Tablatures and chords for acoustic guitar and electric guitar, ukulele, drums are parodies/interpretations of the original songs. You may use it for private study, scholarship, research or language learning purposes only