Home » C » Cranberries »

Cranberries - Time Is Ticking Out Bass

Artists:  A B C D E F G H I J K L M N O P Q R S T U V W X Y Z # 

Time Is Ticking Out Bass

(ver. 2) Click to play this song!
Cranberries
CRANBERRIES
Time Is Ticking Out
Standard Tunning

Intro
------------------------------------------------------
-9-9~--9-9~--9-9~--9-9~-------------------------------
-------------------------5~----------5~---------------
-------------------------------3~----------3~----5----

Verse
------------------------------------------------------
------9--------------9--------------------------------
----------9-7------------9-7--------------------------
--7-----------10-7------------------------------------

Bridge
------------------------------------------------------
------------------------------------------------------
--5---5------------------5---5------------------------
----------3-3-3-5--5-7-7---------3-3-3-5--5-5---------

Chorus
------------------------------------------------------
-------2--2-4-4-5--5-5--5-4-2-------------------------
--5--5------------------------------------------------
------------------------------------------------------

Order:
Intro
Verse (x2)
Bridge
Verse (x2)
Bridge
Verse (x2)
Bridge
Verse (x2)
Bridge
Chorus (x4)
Verse (1 and a half times, then a pause)
Verse (x2)
Bridge
Verse (x2)
Bridge
Chorus (x8)
Verse (x3, plus half of it)
            
Submit corrections

↑ Back to top | Tablatures and chords for acoustic guitar and electric guitar, ukulele, drums are parodies/interpretations of the original songs. You may use it for private study, scholarship, research or language learning purposes only