Home » C » Cranberries »

Cranberries - Dreams Chords

Artists:  A B C D E F G H I J K L M N O P Q R S T U V W X Y Z # 

Dreams Chords

(ver. 2) Click to play this song!
Cranberries
[Intro]
        E             A            B7              E
A|------2------|------2------|------2------|-------2-----2---2-----|
E|------4------|------0------|------5------|-------4-----4---4-----|
C|------4------|------1------|------3------|-------4-----4---4-----|
G|-------------|------2------|------4------|-----------------------|
        >             >             >              >     >   >
 
[Intro - Arpeggio Pattern]
     E
A|---2-----------2-----------2----|---2-----------2-----------2----|
E|-------4-----------4------------|-------4-----------4------------|
C|-----------4-----------4--------|-----------4-----------4--------|
G|--------------------------------|--------------------------------|
     A
A|---2-----------2-----------2----|---2-----------2-----------2----|
E|-------0-----------0------------|-------0-----------0------------|
C|-----------1-----------1--------|-----------1-----------1--------|
G|---2----------------------------|---2----------------------------|
     B7
A|---2-----------2------------2---|---2-----------2------------2---|
E|---------5----------5-----------|---------5-----------5----------|
C|-------------------------3------|--------------------------3-----|
G|--------------------------------|--------------------------------|
     E
A|---2-----------2-----------2----|---2-----------2-----------2----|
E|-------4-----------4------------|-------4-----------4------------|
C|-----------4-----------4--------|-----------4-----------4--------|
G|--------------------------------|--------------------------------|
 
[Chorus]
E        A
 Oh, my life
                  B7
Is changing every day
                   E
In every possible way
 
E             A
 And oh, my dreams
                        B7
It's never quite as it seems
                    E
Never quite as it seems
 
 
[Verse 1]
E                             A
 I know I've felt like this before
                             B7
But now I'm feeling it even more
                      E
Because it came from you
 
E                    A
 Then I open up and see
                           B7
The person falling here is me
                   E
A different way to be
 
 
[Interlude]
G
Ah ah
      C
La ah ya ah ah
      G
La la ya ah
      C
La ah ya ah
      B7  E
La ah ah  ah
 
 
[Verse 2]
E        A
 I want more
                B7
Impossible to ignore
                E
Impossible to ignore
 
E              A
 They'll come true
                  B7
Impossible not to do
                  E
Impossible not to do
 
 
[Verse 3]
E                     A
 And now I tell you openly
                                B7
You have my heart so don't hurt me
                        E
You're what I couldn't find
 
E                   A
 A totally amazing mind
                         B7
So understanding and so kind
                     A
You're everything to me
 
 
[Chorus]
E        A
 Oh, my life
                 B7
Is changing everyday
                   E
In every possible way
 
E             A
 And oh, my dreams
                        B7
It's never quite as it seems
                         E    B7      E
'Cause you're a dream to me, dream to me
 
[Interlude - Arpeggio Pattern]
     E
A|---2-----------2-----------2----|---2-----------2-----------2----|
E|-------4-----------4------------|-------4-----------4------------|
C|-----------4-----------4--------|-----------4-----------4--------|
G|--------------------------------|--------------------------------|
     A
A|---2-----------2-----------2----|---2-----------2-----------2----|
E|-------0-----------0------------|-------0-----------0------------|
C|-----------1-----------1--------|-----------1-----------1--------|
G|---2----------------------------|---2----------------------------|
     B7
A|---2-----------2------------2---|---2-----------2------------2---|
E|---------5----------5-----------|---------5-----------5----------|
C|-------------------------3------|--------------------------3-----|
G|--------------------------------|--------------------------------|
     E
A|---2-----------2-----------2----|---2-----------2-----------2----|
E|-------4-----------4------------|-------4-----------4------------|
C|-----------4-----------4--------|-----------4-----------4--------|
G|--------------------------------|--------------------------------|
 
[Outro]
E       A
 Ah, la-la-ah-ah-ah-ah, da da da
B7                                       E
La-ah-ah-ah-ah-ah, La-ah-ah-ah-ah-ah, ah ah
 
E       A
 Ah, la-la-ah-ah-ah-ah, da da da
B7                                       E
La-ah-ah-ah-ah-ah, La-ah-ah-ah-ah-ah, ah ah
 
E       A
 Ah, la-la-ah-ah-ah-ah, da da da
B7                                       E
La-ah-ah-ah-ah-ah, La-ah-ah-ah-ah-ah, ah ah
 
E       A
 Ah, la-la-ah-ah-ah-ah, da da da
B7                                       E
La-ah-ah-ah-ah-ah, La-ah-ah-ah-ah-ah, ah ah
            
Submit corrections

↑ Back to top | Tablatures and chords for acoustic guitar and electric guitar, ukulele, drums are parodies/interpretations of the original songs. You may use it for private study, scholarship, research or language learning purposes only