» » »

Cranberries - Analyse Tabs

Artists:  A B C D E F G H I J K L M N O P Q R S T U V W X Y Z # 

Analyse Tabs

(ver. 1) Click to play this song!
Cranberries
 Rating:
4/5 (4 votes)

 Analyse lessons Tabs too difficult? Try these video lessons and learn fast
 
                Key: standard tuning all guitars.

There're more than two guitars in the songs the last is the less important.

G1: electric with clean sound. Capo 2
G2: electric with light distortion. Capo 2
G3: electric with light distortion.

Riff 1
e-------------------------------------||
b-------------------------------------||
g-------------------------------------||
d--4h6-4-2----------------------------||
a-------4-----------------------------||
e-------------------------------------||

    Em  D   G
e---0---2----3---------------------------||
b---0---3----0---------------------------||
g---0---2----0---------------------------||
d---2---0----0---------------------------||
a---2---------2-------------------------||
e--------------3-------------------------||

Riff 2
    
     *     **    ***
e-------------------------------------||
b--0--0---6--6--2--2-0---0-------------||
g---1------7-----2----1---------------||
d----2------7-----4----2--------------||
a-------------------------------------||
e-------------------------------------||

Bridge

Em x2  D, D x2  Em, Em x2 G, G x2 D.

Riff 3
e-------------------------------------||
b-------------------------------------||
g----9~~~-----------------------------||
d-------------------------------------||
a-------------------------------------||
e-------------------------------------||

Form:
 
Intro:
- G1 :Riff 1 +  G2: D repeated fast
- G1: Riff 1 +  G2: G repeated fast
- The same as first
- The same as second
Verse:
Part 1:
- G1: D  , G , Em , D
Part 2: 
- G1: D , G , Em , D

Pre chorus: Part 3
- G1: D , riff 2 * , G , riff 2 ** , Em , riff 2 ***, D , riff 2 *. Repeated two times.

Chorus:
- G2: D , G , Em , D + riff 3 through the whole chorus

Bridge.

Verse. Part 1 , Part 3.

Chorus.
Chorus + riff 1
Chorus + riff 1+ riff 2 *
Chorus + riff 1+ riff 2 **
Chorus + riff 1+ riff 2 ***
E , F#m , E end.

G1: plays riff 1; Em, D, G.
G2: plays Em, D, G.
G3: riff 3.  riff 2 * , ** , ***

Enjoy it.
Please vote for this tab.
any correction, please send me a mail.

this is the correction. now it's right.
            
Submit corrections


        Analyse lessons Hard to play? Try these video lessons and learn fast Analyse lessons
        
↑ Back to top | Tablatures and chords for acoustic guitar and electric guitar, ukulele, drums are parodies/interpretations of the original songs. You may use it for private study, scholarship, research or language learning purposes only