» » »

Cranberries - Analyse Bass

Artists:  A B C D E F G H I J K L M N O P Q R S T U V W X Y Z # 

Analyse Bass

(ver. 1) Click to play this song!
Cranberries
 Rating:
4/5 (4 votes)

 Analyse lessons Tabs too difficult? Try these video lessons and learn fast
 
                Intro:(0:07)
G----------------------|
D----------------------|
A-9-11-9-6-7-7-7-7-7-7-|  x4
E----------------------|

Verse 1:(0:23)Close your eyes...
G-----------------------------------------------------------------|
D-----------------------------------------------------------------|
A-7-7-7-7-7-7-7-7-0-0-0-0-0-0-0-0-9-9-9-9-9-9-9-9-7-7-7-7-7-7-7-7-|  x2
E-----------------------------------------------------------------|
(Normally you must play the 7 x16, the 0 x16, the 9 x16 and the 7 x16)

Pre-chorus:(0:55)Don't an*lyse...
G-----------------------------------------------------------------|
D-----------------------------------------------------------------|
A-7-7-7-7-7-7-7-7-0-0-0-0-0-0-0-0-9-9-9-9-9-9-9-9-7-7-7-7-7-7-7-7-|  x2
E-----------------------------------------------------------------|

Chorus:(1:28)
G-----------------------------------------------------------------|
D-----------------------------------------------------------------|
A-7-7-7-7-7-7-7-7-0-0-0-0-0-0-0-0-9-9-9-9-9-9-9-9-7-7-7-7-7-7-7-7-|  x2
E-----------------------------------------------------------------|


Bridge:(2:00)
G-----------------------------------------------------------------|
D-----------------------------------------------------------------|
A-10-9-7------0-7-9------10-9-7------0-7-12-----------------------|  x1
E-----------------------------------------------------------------|


Verse2:(2:15)Close your eyes...
G-----------------------------------------------------------------|
D-----------------------------------------------------------------|
A-7-7-7-7-7-7-7-7-0-0-0-0-0-0-0-0-9-9-9-9-9-9-9-9-7-7-7-7-7-7-7-7-|  x2
E-----------------------------------------------------------------|

Chorus:(2:48)
G-----------------------------------------------------------------|
D-----------------------------------------------------------------|
A-7-7-7-7-7-7-7-7-0-0-0-0-0-0-0-0-9-9-9-9-9-9-9-9-7-7-7-7-7-7-7-7-|  x1
E-----------------------------------------------------------------|

G-------------------------------------------------------------------------|
D-------------------------------------------------------------------------|
A-911967-7-7-7-7-7-911967-0-0-0-0-0-0-911967-9-9-9-9-9-9-911967-7-7-7-7-7-|x1
E-------------------------------------------------------------------------|

G-------------------------------------------------------------------------|
D-------------------------------------------------------------------------|
A-911967-7-7-7-7-7-911967-0-0-0-0-0-0-911967-9-9-9-9-9-9-911967-7-7-7-7-7-|x1
E-------------------------------------------------------------------------|


Outro:(3:35)
G--------------------------------------------------------|
D--------------------------------------------------------|
A-911967-7-7-7-7-7-7-7-7-7-7-7-7-7-7-7-7-7-7-7-7-7-7-7-7-|  x1
E--------------------------------------------------------|
            
Submit corrections


        Analyse lessons Hard to play? Try these video lessons and learn fast Analyse lessons
        
↑ Back to top | Tablatures and chords for acoustic guitar and electric guitar, ukulele, drums are parodies/interpretations of the original songs. You may use it for private study, scholarship, research or language learning purposes only